All Who Are Thirsty

Here's another one by Kutless.




Intro
---------------7-----------------------
---8---7h8-7h8----------7---7h8-7h8-7--
-7---7-----------(x2)-7---7------------
---------------------------------------
---------------------------------------
---------------------------------------

----------------------------------------
---7---8s10s12-----------------------10-
-7---7-------------12----11h12-11h12----
----------------10----10----------------
----------------------------------------
----------------------------------------

------------------------------------------------
----------------------10--s10-10-10-s12-12-12-8-
----12----11h12-11h12---------------------------
-10----10---------------------------------------
------------------------------------------------
------------------------------------------------

Download video

5 comments:

Kirin said...

so awesome dood. i was looking for this for a long time! thank you so much!

Sam said...

u left out the tabs for what u played at the end.

Charlie said...

-----5--------------------5------------
---8---8----------------8---8----------
-7-------7-(x2)-------5-------5-(x2)---
---------------------------------------
---------------------------------------
---------------------------------------
(bar the 5th fret)

i think this is the ending part

Matthew Bailey said...

Hey... This probably isn't the best place to ask this.

But I was wondering if you've heard the new Kutless CD yet.

I was hoping you could help me with their version of "It is Well"

ricardo said...

wow!
thank you bro. ^_^