Yours Forever

By Colin

The lead guitar parts were a bit tough to pick up as the rhythm guitars were quite loud, but I hope this helps you out nonetheless.

BLESS!!





Introduction
---------------------------------------------------
---------------------------------------------------
---------------------------------------------------
--9-9-7-9v------7--7----9-9-7-9v-------------------
-------------9-7---9-------------------7-5-7-------
---------------------------------------------7-7---X2

Verses
Fast alternate picking
----------------------------------------------------------
---------------------------------------------------------
---------------------------------------------------------
---------------------------------------------------------
-2-2-2-2-2-2--s7-7-7--s9-9-9--s5-5-5-5-5-5--4-4-4-4-4-4--
---------------------------------------------------------

Solo
I know it is a little wrong, but it works.
---------------------------------------------
--7----------7------------7------------------
--7----------7------------7-----------9v-----
----9p7h9------9p7h9--------9p7h9------------
---------------------------------------------
--------------------------------------------- X2


----------------------------------------------
--7-7----------7-7----------7-7---------------
--7-7----------7-7----------7-7----------9v---
-------9p7h9------9p7h9---------9p7h9---------
----------------------------------------------
----------------------------------------------X2

5 comments:

Dylan said...

thank you so much!!! I've been waiting for this :]

Colin said...

intro tab is a little messed up, but i think you can figure it out from the video. nonetheless it should be fixed soon

Dilpil said...

not to bad, could you do rhythm aswell?

Sean said...

this was really good.
i like how you switched guitars.
do you have like an arsenal of them?

Igor Estev√£o said...

the solo is hard to take, i dont understand it by the tab, and the video is lagged :/.
I hope you put a new video.
Thank's, God Bless.