Nothing is Impossible

Here's Nothing is Impossible by Planetshakers.



Intro
-------------------------------------------
-8--------8--8--8--8--8--8----8------------
-10-x(4)--9--9--9--9--10-9----10-(x4)--10--
-10-------10-10-10-10-10-10---10-------10--
---------------------------------------8---
-------------------------------------------

Verse
C Dm, followed by
-------------------
-------------------
-------0--2--(x2)--
-----3-------------
---3---------------
-1-----------------

Am G, followed by

-------------------
-------------------
-------0--2--(x2)--
-----3-------------
---3---------------
-1-----------------


Pre chorus
Keep repeating:

-------------------------
-------------------------
------12------12---------
-9-10----9-10-----9-10---
-------------------------
-------------------------

Chorus
C G Am F

Download video

3 comments:

mkingdom said...

Wow great blog very handy with the metronome as well when I get home I will try the tabs on my guitar.

I just set up a blog as well I am a fender man, I am writing a blog on the history of fender as well as posts on the magic of ones love for their guitar...

http:thefenderblog.blogspot.com

Anon :) said...

ummm how do you the bridge part kenny. I need a reply ASAP :) thanks!

The Baker Family said...

Does anyone have tabs for the intro