Glory to God Forever

Here's Glory to God from the new Fee album.

By Garrett



Intro:
-------------------------------
--------------12--11-11-11-12--
-9--11--9--8-------------------
-------------------------------
-------------------------------
-------------------------------

--------------------------------------------
--------------12--11-11-11-12-12-12-12-11-12
-9--11--9--8--------------------------------
--------------------------------------------
--------------------------------------------
--------------------------------------------

Chorus 1:
-11----11----11----11----9----9----11----11----
----12----12----12----12---12---12----12----12-
-----------------------------------------------
-----------------------------------------------
-----------------------------------------------\
----------------------------------------------- \
x2
-11----11----11----11----9----9----14----11---- /
----12----12----12----12---12---12----12----12-/
-----------------------------------------------
-----------------------------------------------
-----------------------------------------------
-----------------------------------------------

Bridge: (strumming isn’t exact)
-----------------------------------------
-----------------------------------------
-9-9-9--8-8-8--4-4--11-11-11-11--4-4-4-4-
-----------------------------------------
-7-7-7--6-6-6--2-2--9--9--9--9---2-2-2-2-
-----------------------------------------

----------------------------------------------------
----------------------------------------------------
-9-9-9--8-8-8--4-4--11-11-11-11--13-13-13-13---8-8-8
----------------------------------------------------
-7-7-7--6-6-6--2-2--9--9--9--9---11-11-11-11---6-6-6
----------------------------------------------------

2 comments:

Romka said...

amazing song!

Greg said...

Hi - great start to the song there fella. The riff isn't as played on the CD. I have just updated the other version of the song on this site so go have a look and learn and really rock out :D