Stronger (solo variation)

Did a variation on the 2nd half of the solo by transplanting the riff from New Life Worship's Here in Your Presence. Some shredding at the end too, hope its good practice!



Tabs
---------------------
------------13-15-12-
--9--10-12-----------
------------10-12-9--
--7--8--10-----------
---------------------

---8---10p8---12p8---10p8---12p8---10p8---
-8---8------8------8------8------8------8-
------------------------------------------
------------------------------------------
------------------------------------------
------------------------------------------

-13p8---12p8---10p8---12p8---10p8---10p8---
------8------8------8------8------8------8-
-------------------------------------------
-------------------------------------------
-------------------------------------------
-------------------------------------------

-s15-15-15-15--15h17-15-13--12h13p12------
------------------------------------------
------------------------------------------
------------------------------------------
------------------------------------------
------------------------------------------

------------------------------------------
-15p13p12---------------------------------
----------14p12---------------------------
----------------14p12--10-9b10r9----------
---------------------------------10s12----
------------------------------------------

Download video

2 comments:

Sam said...

dude!!! that pretty flippin' sweet

Micah said...

do you think you could tab With Evrything by hilsong and what kind of delay they use also?