More Than Anything

Here're just some add-ons to the very thorough tabs Jerome has already done. I play the intro slightly differently, and use muted double-stops for the verse. The chorus is also done a little differently.




Intro
----------------------11---------11----------
-14-12----14--12---------12---------12-------
-------11--------11---------11---------11----
---------------------------------------------
---------------------------------------------
---------------------------------------------

Verse
Strum, with palm mutes
-----------------------------------------
-4---5----4----2------2s4----------------
-4---4----4----3------3s4--...repeat-----
-----------------------------------------
-----------------------------------------
-----------------------------------------

Pre-chorus
Strum
F# G#m E E (x4)
F#

Chorus
------7-----7------6-------4-----4--
--------0----------------------0----
-6s8------8----8s6----6s4----4------
------------------------------------
------------------------------------
------------------------------------
Repeat, without the notes in italics (the first two notes)


Download video

4 comments:

kOOl said...

I love the sound your getting!!

what kind guitar are you using?XD

Quarbon said...

Nice.
I would play the intro:

-----------------------------11---------11-----------
------14-12----14--12---------12---------12-------
--11---------11-------------------11----------------
------------------------------------------------------
------------------------------------------------------
------------------------------------------------------

:)

jermeweebee said...

that last "4" on the chorus should be a 2

gino97 said...

what are the pod xtl settings