Your Name High (United)

Here's Your Name High by United.. its similar to the Hillsong version, with some minor variations.



Tabs

Intro 1: keep repeating between the two riffs:
----9---------12----

-10--------14-------
--------------------
--------------------
--------------------
--------------------

Intro 2: strum
-9--12--14--12--9---7----
-10-14--15--14--10--9----
-------------------------
-------------------------
-------------------------
-------------------------

Verse:
I incorporated both rhythm and lead parts here, so its a little strange
------------------------
------------------------
------------------------
-4--------2-------------
-4--(x8)--0--(x8)---rpt-
------------------------

-----------------------------
--------------3--------------
-6--2--1-----------F#m--E----
-----------4-----------------
-----------------------------
-----------------------------

Chorus
Strum the chords, but if you have an additional guitar you can play this, with a dotted 8th note delay:
---------------
------9-9h10---
-9-11----------
---------------
---------------
---------------

4 comments:

^^ said...

kenny can you post the song yours forever plssss

¤Seven 7 Days™¤ said...

yeah kenny!! would be mad if you put the tabs of Your Forever!!

And, what about the chords of this song??, sounds cool!!

James said...

Can someone please tab the real version of with everything?

Willi said...

i think u can also play the intro like:

strum

e|-5--9---10--9---5--4
B|-7--10--10--10--7--5
G|--------------------
D|--------------------
A|--------------------
E|--------------------