Desert Song

Here's the first bit of Desert Song by United, which wasn't in the earlier post.



Intro - try to link the notes as smoothly as possible
--------------------------------------------
-15s14--------------------------------------
--------14s16--11--9s14---11----------------
-12s11------------------------14s7-11s12s9--
--------12s14--9---7s12---9-----------------
------------------------------12s5--9s10s7--

--------------------------------------------
-15s14--------------------------------------
--------14s16--11--9s14--11---9s14--16------
-12s11--------------------------------------
--------12s14--9---7s12--9----7s12--14------
--------------------------------------------


Verse
Harmonics:
-----------------------------7----------
---7-------------7-------7-----------5--
-7---7-------7-5---7---7---7-------7----
-------7---7---------------------7------
----------------------------------------
----------------------------------------

Same as the Hillsong version
-------0------------10----9--------
---7--------7----------------------
-7---7----7----9s11----11----(x3)--
-----------------------------------
-----------------------------------
-----------------------------------

-------0---------10-------10-----10---------
---7----------8---------8------8-------8--7-
-7---7---7s9----------7------7-------7----7-
--------------------------------------------
--------------------------------------------
--------------------------------------------

Download video

6 comments:

Dustin said...

great job! I have been looking for this! Thank you SO much!!

jrod77 said...

what affects are you using for this. i can't seem to get that sound in the into

ricardo said...

i like this version,,

thank you so much bro. ^_^ God Bless

Ethan said...
This comment has been removed by the author.
Acekhiel said...

can you give some hints of patch that i can put on my old boss ME8 so i can use it on my musics specially when i'm playing Hillsongs musics.thanks!

blackhounter said...

how you get that sound what you use?