You Hold Me Now

By Jerome

I recently bought this song on itunes and i really how its piano driven. I'm happy
that United didn't forget to use their keyboard (lol); anyway i tabbed the rest of the guitar parts
enjoy!



Intro: D G Bm G

Verse:
D G D Bm G A

Pre-Chorus
Em D G G

Chorus:
D G Bm G
D G Bm G

Bridge:
D A Em G

Download the video


Instrumental: Heavy dist here
-----------------------------
-----------------------------
--7--9--11-6--7--14--12--11--
-----------------------------
--5--7--9--4--5--12--10--9---
-----------------------------

-----------------------------
-----------------------------
-9--11-12--11-9--7--4--6--7--
-----------------------------
-7--9--10--9--7--5--2--4--5--
-----------------------------

-----------------------------
-----------------------------
--6--7--9--6-----------------
-----------------------------
--4--5--7--5-----------------
-----------------------------

Download the video

6 comments:

Daniel said...

Those camera angles are awesome, how did you do that?

Artur said...

there is a mistake in chords....
in verse it goes like this
D | G D | Bm | F#m A|

and there is also a part befor bridge
G | A | Bm | D/ F#|
G | A |

Guitar_man32@yahoo.it said...

Hahaha.... it's a secret XD

Anyway i use 3 webcams to do that.

-Jerome

AznKenshin said...

What do you use to record?

Do you separately record video and audio?

I'm trying to separately record them and I'm having a REALLY hard time synchronizing them! Ex. Sometimes they're in sync, but 3 minutes later the video speeds up...

dhoang said...

do you leave a webcam attached to your guitar for one angle? looks awesome.

Renato said...

Hey Guys! I'm from Brazil! I made workshop of You hold me now and Solution too. You are welcome there: http://letraemusicadgp.blogspot.com/2011/03/solution-hillsong-united.html or http://letraemusicadgp.blogspot.com/2011/02/you-hold-me-now-video-aula.html . God bless us!