My Deliverer

Here's My Deliverer by Chris Tomlin. The guitars are tuned down by half a fret, as usual I took the easy way out by raising the key of the song by the same amount.

I stopped playing in the middle of the chorus as I thought had forgotten to click 'record' on Audacity. Improvised something at the end, watch out for the "Today is the Day" rip-off!



Tabs

Intro
-10--10--12--10---10--10--12--14-------------
---10--10--10--10---10--10--10--10-----------
---------------------------------------------
---------------------------------------------
---------------------------------------------
---------------------------------------------

------------------------
-----10-----7-----2-----
-11-----9-----7------4--
------------------------
------------------------
------------------------

Verse
Not too sure about this, but it sounds something like:
-----------------------------
---0--0----------------------
-0------2--------------------
----------2h4-2--0-2h4-2p0---
-----------------------------
-----------------------------

Pre-Chorus
-----------5-------
-5---5---5---5-----
---7---7-------7---
-------------------
-------------------
-------------------
Keep repeating; keep playing the last note to lead to the chorus.

Chorus
Strum
-10---10---9----

-8----7----10---
-7----7----9----
----------------
----------------
----------------
The chords, respectively, are G D A. Towards the end of the chorus the chords are just G and D, so skip the middle chord.


Download video

2 comments:

Chad said...

Hopefully this comes through...

Intro (per Daniel Carson)
e|---------------------------------------------13----------------------|
B|--14----14----16----14----14----14----16-----------------------------|
G|-----13----13----13----13----13----13----13--------------------------|
D|---------------------------------------------------------------------|
A|---------------------------------------------------------------------|
E|---------------------------------------------------------------------|

Gtr 2 intro
e|---------------------------------------------------------------------|
B|---------------------------------------------------------------------|
G|--9~~~~~12~~~7~~~~~9~~~5~~~~4~~~5~~2~~~~~----------------------------|
D|---------------------------------------------------------------------|
A|---------------------------------------------------------------------|
E|--8-----12---7-----8---5----3---3--1---------------------------------|

Pre-chorus
e|---------------------------------------------------------------------|
B|---------------------------------------------------------------------|
G|--5-5-5-5-5-7-9---5-5-5-5-5-7-9---5-5-5-5-5-7-9--7-7-7-7-7-7-7-7-----|
D|---------------------------------------------------------------------|
A|--3-3-3-3-3-5-7---3-3-3-3-3-5-7---3-3-3-3-3-5-7--5-5-5-5-5-5-5-5-----|
E|---------------------------------------------------------------------|

e|---------------------------------------------------------------------|
B|---------------------------------------------------------------------|
G|--7-7-7-7-7-9-10--9-9-9-9-9-10-12---10-10-10-10-10-12-14-12----------|
D|---------------------------------------------------------------------|
A|--5-5-5-5-5-7-8---7-7-7-7-7-8--10---8--8--8--8--8--10-12-10----------|
E|---------------------------------------------------------------------|

Chad said...

Dang! Too wide... copy and paste it into Word or Excel and it'll come through. This is exactly what Daniel plays on the album and in concert.