Take All of Me (With Hearts As One version)

Here's the instrumental to Take All of Me, With Hearts As One Version. I didn't follow the cd exactly, cos its quite hard to hear, but here's the general idea.




I added the last few notes after recording the video as the ending I used didn't really turn out right.

----------------------------------
-------14b15r14--14p12------------
-14-14-----------------14--(x2)---
----------------------------------
----------------------------------
----------------------------------

----------------------------------------------
----------------------------------------------
-14p13-13--9s11s9--14-14-14--14p13-13--9s11s9-
----------------------------------------------
----------------------------------------------
----------------------------------------------

------------------------------17---17----17--
-12-12--12s14-14s15-15-15-15---15----15-----
--------------------------------------------
--------------------------------------------
--------------------------------------------
--------------------------------------------

-------------------------12----12-----------
-15p14-14-s12-12-s10-10-----10----10--------
--------------------------------------------
--------------------------------------------
--------------------------------------------
--------------------------------------------

----------------------------
-10p9-9---------------------
--------9s11s9---4-4s9-9----
----------------------------
----------------------------
----------------------------

Halfway through!


----------------------------------
-------14b15r14--14p12------------
-14-14-----------------14--(x2)---
----------------------------------
----------------------------------
----------------------------------

-----------------------------
----17-----------------------
-14----14---13-13s9-9s11s9---
-----------------------------
-----------------------------
-----------------------------

-------------------------
-------------------------
-7p6-7p6-----------------
---------7s9--7-9s11-9---
-------------------------
-------------------------

I can't remember exactly what I played here; its something like this:
-------------------------------------------------------------
-------------------------------------------------------------
9-9-9-9-7-7-6-6-7-7-9-9-9-9-11-11-11-11-14-14-14-14-16-16-16-
-------------------------------------------------------------
7-7-7-7-5-5-4-4-5-5-7-7-7-7-9--9--9--9--12-12-12-12-14-14-14-
-------------------------------------------------------------

--------------------------------------------
----10-12b14------10h12---10------10---9~---
-11------------11---------------9----9------
--------------------------------------------
--------------------------------------------
--------------------------------------------

Download the video

9 comments:

Jam said...

I love the sound you get. It's amazing. . .

GuitarAzn101 said...

Hey Kenny, this is a great video! I've been trying to get at this solo for a while now, but you've set a strong foundation to really get it. :) In the I Heart Revolution DVD, MCG plays this with two fingers because he has a soft splint on his index finger. XD

GuitarAzn101 said...

oh hahah i almost forgot. I recently purchased a POD X3 Live, and i've always wanted to contribute to this website! what things should i get/do before i can make a video for the site?
You can reach me at GuitarAzn@hotmail.com
the name's Gene. Thanks

Brent, the one and only, unless your name is Brent said...

How do you get the screech @ the 10th fret just near the end of the song?

----10-12b14------
-11------------11-

10h12---10------10---9~---
--------------9----9------

GuitarAzn101 said...

Hey Brent,
I think that "screeching" noise at the end is an artifical harmonic he let ring. If you don't know what that is, or how to do it, i think there is a video on this website that explains it in-depth. if you cant find it, on the top, search: WHAT THE WORLD WILL NEVER TAKE (ACOUSTIC ENDING SOLO) then scroll down and there should be a link Kenny put in.
Hope it helps.

Justin said...

hey the instrumental you did is no complete i think, do you have a video of the second part?

Justin said...

i mean not complete sory

stlcardinals said...

i think that screech is actually a pinch harmonic

Capas UMC carlie said...

Kenny,
ur a great guy,
can u sh0w us wat effect u use at dis s0ng, THANKS a LOT,
and g0dbLez,