My God

By Hillsong London. For those using my Pod X3 patches, I'm using patch '32B', but I've lowered the mids to 75%, and upp-ed the gain on the stompboxes to about 35-40%.



There's also an improvised part at the back :)


Tabs

Intro
-----------------------------------
-----------------------------------
-----------------------------------
-----5-------5-------4h5-4---4h5---
-2-2---2-3-3---3-5-5-------5-------
-----------------------------------

-----------------------------------
-----------------------------------
-----------------------------------
-----5-------5-------7-------7-----
-2-2---2-3-3---3-5-5---5-5-5---5---
-----------------------------------

Verse
Strum the whole power chord in line with the snare drum, else hit the lowest note witih palm mutes.

C G D Em
C G D D
-----------------
-----------------
-----------------
-----------------
-----5h7p5---5---
-5h7-------7-----

C G D Em
C G D D


Pre-Chorus
D Em C C

Chorus
G/B C D D
G/B C D D

For G/B, play
----
----
-4--
-5--
-2--
----

Followed by (strum each a few times):
-----------------------------------
-----------------------------------
-9-11-12--7-11-12--5--7------------
-----------------------------------
-7-9--10--5-9--10--3--5------------
-----------------------------------

4 comments:

Zander said...

That improvised part was awesome Kenny! Any chance that you are going to post the tab and video to it. 8-P

WilfredZorila said...

GODday to you kenny im from philippine.i am Christian,,,i like almost of your play,i used to imitate your play,, just kike the take it all,From the inside and out,my GOD even the adlib you dont show to us but its ok,its a BIG help to us just continue be used by GOD.

WilfredZorila said...

Amen!!!

Jaison said...

This is awesome Kenny, God bless U :)