My Soul Sings

By GabonMx

[Kenny: the guitar's out of tune, but you shld be able to get the idea from the vid]



Intro-Verse 1
B-13--------------------|
G----12-10-9------------|


Prechorus

B-6--5--8--5--6--5---(x3)

B-/9--10-12----------|


Chorus
e-------12----------|
B----13----13-------|
G-12----------------|

You can alternate these notes in any order. Replace e--12-- for "13", at "How i love you"


Verse 2
B--13-12-13---------|13-12-10------|
G-----------12-10-9-|---------10-9-|

B-13-12-13-12-|13---------|--13----------|
G-------------|---12-10-9-|---12-10-9--|


Bridge
B-13----12----10----10-12---|
G----12----12----12---------|

2 comments:

Life Logic said...

Hey this is kind of wrong intro sorry but isnt it

G--------17
D-----------17-15-14

it sounds cleaner.
And i saw stu play this at JAMA 2009

Dev7 said...

For chords see the New Song Cafe On Youtube at:
http://www.youtube.com/watch?v=INDE9vAFDjg

And Stu G plays everything in between the 4th and 9th frets mostly.