Free (Planetshakers)

By Stephen

The intro, prechorus, and bridge use dotted 8th note delay, muted for the most part. The chorus chords also use the chords for the intro. Have a blast, it's an awesome song!



[Kenny: the tone is a little screechy as its recorded from a mic, not direct, but give him a break as its his first time :) ]

Intro
E-----------15---------15-15-15------15-15-1------13
B-13-12--13------13-12----------13-12-----------13--
G---------------------------------------------12----
D---------------------------------------------------
A---------------------------------------------------
E---------------------------------------------------

E------------------------
B------------------------
G---9---10---14---12-----
D------------------------
A---7----8----12---10----
E------------------------


Verse muted w/ echo
E-----------------
B-----------------
G--------7---9----
D---10------------
A-----------------
E-----------------


Prechorus 1 muted with echo
E----------------------------------------------------
B---------13------13----------13-----------13--------
G------12--------------12----------12---------12-----
D--10----------------------10-----------10-------10--
A----------------------------------------------------
E----------------------------------------------------


Chorus/Intro chords
E------------------------------------------
B------------------------------------------
G---9---7---9---10--------9---10---14---12-
D------------------------------------------
A---7---5---7----8--------7----8---12---10-
E------------------------------------------

Bridge muted with echo
E--------------------12-----13---12--13--12--13----
B-13-(keep repeating)---13-------13--13--13--13----
G--------------------------------12--12--12--12----
D--------------------------------------------------
A--------------------------------------------------
E--------------------------------------------------

1 comment:

Silvia Jacinto said...


I really love your blog there's a lot to share. Keep it up.Visit my site too.

n8fan.net

www.n8fan.net