The Call

Here's The Call by Hillsong London. I played with the coil tap quite abit, to switch between humbucker and single coil tones.



Tabs

Intro
Dotted 8th note delay, play each note a few times.
-------------0--2-----------------4--5-----

----3--2-----------2--------3--2-------2---
-2-----------------------2-----------------
-------------------------------------------
-------------------------------------------
-------------------------------------------

Verse 1
Repeat the first two notes several times first
---0---...---0-2-----4-5--------

-2-----...-------2-------2------
--------------------------------
--------------------------------
--------------------------------
--------------------------------

Chorus
---0----0-------------------
------2---------5------5----
-2----------4s6----4s6------
----------------------------
----------------------------
----------------------------
Repeat twice, followed by Bm F#m E E twice.

Instrumental
-------------------------
------------------2--0---
------2--1------2--------
----0--------------------
-2------------4----------
-------------------------

Repeat several times, followed by:
------------------------------
------------14--12----14--12--
-2s14--13---14--13----14--13--
------------------------------
------------------------------
------------------------------
Use the dotted 8th note delay, repeat each note several times

-----------------------------
-----------------------------
-11----11--------------------
----11----11-7-7--7-6s11-----
-----------------------------
-----------------------------

2 comments:

Frankie said...

That is cool....do you think you can get the solo from this song.....http://www.youtube.com/watch?v=Pw-60nFZ0zY but it is spanish

robert said...

Awesome man, but im confused when you play the instrumental, it seems you start at the 7th fret, yet on the tabs it says 2nd.
For Frankie i dont think theres a guitar solo, i think its the piano. idk i didnt listen to the whole song.