New Start

By Emmanuel

Here's a song by Citipointe. There are actually 2-3 guitars, but I've played the riffs from the main one.



Intro:
---------5-7-5---------------5-7-5---
-------------------------------------
-7-------------------7---------------
-7-------------------7---------------
-5-------------------5---------------
-------------------------------------

-------------------------------
-------10s---------------10s---
-------------------------------
-5-----------------5-----------
-5-----------------5-----------
-3-----------------3-----------
repeat this twice

Verse:
use palm muting with the power chords of the following
D Bm A G

Chorus:
use these chords
D G Bm A G (2x)

Bridge:
use palm mutes
---------------------------------------
-----8-8-7-7---10-----10---8p7h8p7-----
-7-7---------7----7-7----7------------- (8x)
---------------------------------------
---------------------------------------
---------------------------------------

for this second part don't use PM
--------------------------------------------------
--------15-15-14-14----17------17----15p14h15p14--
-s14-14-------------14----14-14---14-------------- (4x)
--------------------------------------------------
--------------------------------------------------
--------------------------------------------------

God Bless You..


2 comments:

James said...

good job!! :)

Lorenz said...

can you post more citipointe songs pls??,,tnx,,God bless