He is Greater

Here's the solo from He is Greater by Hillsong London. I didn't manage to get the entire guitar into the camera, so quite a few bits were cut off! They're mostly stuff on the 2nd fret, refer to the tabs for more.



--------------------------------------------
--------------------------------------------
-6s8-8-8-8-8-8-6s8-8-8-8-8-8---6s8-6-4------
--------------------------------------------
--------------------------------------------
--------------------------------------------

------------------------------
------------------------------
------------------------4-----
-4s6-4--------------4h6---6---
-------7-6p4-2--4h6-----------
------------------------------

Instead of sliding the note, now bend it.
-----------------------------------
--------------------7-5-4-5-4---7--
-6b8----6b8-8r6-4-------------4----
-----------------------------------
-----------------------------------
-----------------------------------

You can try bending the last note for greater effect.. play 5b7 instead of just 7.

1 comment:

The said...

Wow Kenny, really blessed you did this tab!!!

I was planning to learn it by ear but
my lethargic self decided to check
if someone already did a tabs. ><

Thanks for the tabs!