Count Me In

Here's Count Me In by Leeland, a Christian band with heavy U2 influence.



Tabs
Intro/chorus
-7--8-7----7--8-7----8---8--------
--8----8----8----8----8---8-8-----
---7----7----7----7----7---7------
----------------------------------
----------------------------------
----------------------------------

----8---8------
---8---8----8--
-10---9---7----
---------------
---------------
---------------

Bridge
F C G G

6 comments:

Yong Quan said...

Hi Kenny and team!

Yeah... I was thinking of purchasing a Pod X3 Live guitar amplifier modifier and I am just curious... What is the model of the guitar that you use?

kenny said...

yo i use an ibanez SZ520

JĂșnior said...

Muito bom seu blog
I am Brazilian
Yor blog is very good
Brasillllllll!!!!!

Joseph said...

Could you please post the chords for this song? I tried to look them up, but couldn't find them. I think the song is in F. Thanks!

iTroc said...

Man ... This is AN AMAZIG BLOG ...hey can u post the chords 4 this song as the dude dat commented before me i've been looking 4 'em and couln't find 'em....

Blessings

Macky said...

yeah this songs is great but can u guys do more songs by leeland ...awesome band!!