Prepare Ye the Way

Blessed Christmas to one and all! I recently made a short trip to Batam, an Indonesian island just under an hour away from Singapore by ferry, and chanced across a Christian music store selling Christian cds for just US$5... incredible! Here's the first song from Michael W. Smith's new album, 'A New Hallelujah', which I bought from Batam.



Tabs
Intro/Verse
----------------------------
---10-10-8----10-10-8----8--
-10---------10--------10----
----------------------------
----------------------------
----------------------------

---------8----------8----------
---11-11------11-11--------11--
-10---------10----------10-----
-------------------------------
-------------------------------
-------------------------------

Instrumental
Pluck each note a few times
-15-----18-17-16-17--17b18r17-17b18r17-
----15---------------------------------
---------------------------------------
---------------------------------------
---------------------------------------
---------------------------------------

-15---------
----15-13---
------------
------------
------------
------------

2 comments:

guitar_pic said...

Awesome vid as always. Merry Christmas Kenny! Any chance for you doing A New Hallelujah?

Unknown said...

So glad to find this! Our worship band is playing this for the first time next Sunday and I was looking for an edge. Thank you!
Blessings,
John