He is Lord (the Droff knows best)

In this video, Nigel demonstrates two simple riffs from 'He is Lord'.




Tabs
Riff 1
Dotted 8th note delay
-------------------
-5-5-5-5-5-5-5-3---
-----------------2-
-------------------
-------------------
-------------------

Riff 2
---------------------------------7------8-----
-5---5---5---5---5--5--6---6---6--------------
--5---5---5---5---5-----5---5-------5----5--5-
---7---7---7---7---5-----5---5--5--5--5---5---
----------------------------------------------
----------------------------------------------

---------------------------------7------8-----
-5---5---5---5---5--5--6---6---6--------------
--5---5---5---5---5-----5---5-------5----5--5-
---5---5---5---5---5-----5---5--5--5--5---5---
----------------------------------------------
----------------------------------------------

There's an improvised solo at the end, but I'd advice you to stick to the original one!

2 comments:

Dy-sphoric said...

"He is Lord (the Droff knows best)"
Great Song and great site.
This song seems easy enough for a beginner to play...but not as fast as you. Thanks and I will be back...

roy said...

great tabs! it really helps me. can you tab the song With Everything? tnx!