Pain

Here's my favourite song from This Beautiful Republic, and possibly my favourite song for the entire year :D



Btw - i was using my pocketpod for this video.. hence the pause when I switched effects...


Tabs
Intro
--------------------------------------
--------------------------------------
--------------------------------------
----4-4-5-5-5-------4-4-5-5-5-5-------
--------------------------------------
-3-3----------3-3-3-------------------

--------------------------------------
--------------------------------------
--------------------------------------
-----4-4-3-3-3-------4-4-3-3-3-3------
--------------------------------------
-0-0-----------0-0-0------------------

Verse
--------------------------------------
--------------------------------------
-----0-------0------------------------
---4-------4-------4--------4---------
----------------------7--------7------
-3-----3-3------0-------0-0-----------

Chorus
Play each note several times
-----------------12-10-14-10-12-------

-13-12-15-12-13-----------------------
--------------------------------------
--------------------------------------
--------------------------------------
--------------------------------------

-15-14-17-14-15---19-20-19-17-15------
--------------------------------------
--------------------------------------
--------------------------------------
--------------------------------------
--------------------------------------


-----------------12-10-14-10-12-------
-13-12-15-12-13-----------------------
--------------------------------------
--------------------------------------
--------------------------------------
--------------------------------------

-15-14-17-14-15--
-----------------
-----------------
-----------------
-----------------
-----------------

Bridge
-20-19------20-19--------
-------20----------------
------------------19-21--
-------------------------
-------------------------
-------------------------

-20-19------20-19----------
-------20---------------20-
------------------19-21----
---------------------------
---------------------------
---------------------------

11 comments:

Jam said...

Sick! I am goin to learn this song.

ollipankow said...

Hey Kenny you have a little mistake in your tabs

This line
--------------------------------------
--------------------------------------
--------------------------------------
-----4-4-3-3-3-------4-4-3-3-3-3------
--------------------------------------
-0-0-----------0-0-0------------------
should be
--------------------------------------
--------------------------------------
--------------------------------------
-----4-4-2-2-2-------4-4-2-2-2-2------
--------------------------------------
-0-0-----------0-0-0------------------

But nice Song.... lovin it!

ollipankow said...

btw you are playing it right in the vid... ;)

jaylimsaysss said...

can you tell me for the settings for your pocket pod please?

ChristFollower said...

Hey is this the right key or? cause i went to play it and the version i have it didnt sound right at all when i played with it...idk maybe i have a different version of the song or sumthing..Help? thanks!

Hammaälôth said...
This comment has been removed by the author.
Hammaälôth said...

I made a cover of the whole song. To bad the F# (normally the G) is a little off, but I think the complete result is still oké.

http://youtu.be/zZHhIzXkPcE

lee woo said...

Mistakes are almost always of a sacred nature. Never try to correct them. On the contrary: rationalize them, understand them thoroughly. After that, it will be possible for you to sublimate them. See the link below for more info.

#sacred
www.insgift.com

andrea chiu said...

There are certain point in our life that we encounter failure but it doesn't mean you will lose hope and give up everything but it only means that every failure there's an exchange and that is new beginning. Well, thank you for sharing your article and keep on posting. Visit my site too for more information.

triciajoy.com

www.triciajoy.com

Cindy Dy said...

You are an awesome blogger. This is one of the best blog I had visited so far. Hope to read more post from you in the future. Keep it up. God bless.

Bubble
www.gofastek.com

sarah lee said...

I really enjoyed reading your article. I found this as an informative and interesting post, so i think it is very useful and knowledgeable. I would like to thank you for the effort you have made in writing this article.


edupdf.org