He is Lord

Here's yet another song from the This is Our God album. The solo was really hard to figure out, what I have here is just my best guess.



Intro
Lead
----------------------

----------------------
-9-9-9-9-9-9-9-7-5----
----------------------
----------------------
----------------------

Rhythm: pluck these chords
-5--8--5--7--8---
-5--5--6--6--6---
-5--5--5--5--5---
-----------------
-----------------
-----------------

Interlude (before the 2nd verse)
--------------7------------------------
-10----8----------10----12-13-------12-
----10---9--7--------10----------------
------------------------------14-12----
---------------------------------------
---------------------------------------

Instrumental
Here's, as I mentioned, my guess at the solo..
-8---8---8---12-10-------------12----12-----
---9---9---9-------12----12-------13----13--
----------------------12----12--------------
--------------------------------------------
--------------------------------------------
--------------------------------------------

-13----13h15-13p12-------15------
----13-------------14-13----13---
---------------------------------
---------------------------------
---------------------------------
---------------------------------

I played this part wrongly in the vid.. it should be:
-------15-------------------
-12-13-----12b13-12---------
--------------------14-12---
----------------------------
----------------------------
----------------------------

--------8----8---8---8----8--
-----------------------------
-9-9p10---10---10--10--10----
-----------------------------
-----------------------------
-----------------------------

---15------12-12b13-12-10----------------
-12---(x5)----------------13-12-10h12p10-
-----------------------------------------
-----------------------------------------
-----------------------------------------
-----------------------------------------

-------------------------------------
-------------------------------------
-12-10-9-9h10p9----------------------
----------------12-10-9-10-9-10-9----
----------------------------------10-
-------------------------------------

5 comments:

Anonymous said...

man, instrumental sounds really sweet .. thanks!!
God bless

Anonymous said...

first part of instrumental tabs sound wierd .. is it supposed to be 8-10-8-10.., not 8-9-8-9... ?

Tyler said...

I honestly can't blame you for having a hard time figuring out the solo. That's one of my (few) complaints with Hillsong. When there's a guitar solo or an instrumental, CRANK that instrument!!! It always frustrates me. Sometimes I wonder what the sound guy is thinking.

Shiru said...

@Tyler

I guess it's because the solo there is not really to be focused on, but rather to enhanced? Rather God is the main focus.
But I get what you are saying, it's frustrating to figure out what the guitarist is playing when you can only hear the vox and drums ;D

longge said...

replica IWC is a Switzerland based watch aggregation and one of the a lot of celebrated watch companies in the world. To top it all off, the Seamaster 300 M Diver Alarm is cocky winding, appearance a date affectation window at 3 o’clock and is topped with a abiding unidirectional bezel.