Sing to the Lord

By Neil



INTRO:
---------------------------------
-10-12s14--9--10-12--10-12s17s19-
--------------------------------- (2X)
---------------------------------
---------------------------------
---------------------------------


VERSE:
----------------------------
-10--9--10---12--14---------
----------------------------
----------------------------
----------------------------
----------------------------

----------------------------
-10--9--10-15-14--10----------
---
----------------------------
----------------------------
----------------------------
----------------------------

Pre CHORUS: (Plucked power chords)
D--A--F#m--E
D--Dmaj7--F#m--E


CHORUS (low):
-------0------0---------------
-----0----0-------0--etc..----
---6--------6---6-------------
-7----------------------------
------------------------------
------------------------------


CHORUS (High): Strum

Sing to the Lord...
----------------
-10-10---10---9---
-9--9----9----9---
-11-9----11---9---
----------------
----------------

Let the Heavens...
----------------
--10--9---------
--9---9---------
--11--9---------
----------------
----------------

Great is our God
----------------------------
--12---10---12--------------
--11---9----9---------------
--9----9----9---------------
----------------------------
----------------------------

BRIDGE:

Low....

The heavens...
----------------------------
-------10-------------------
----13----13----------------
-14----------14-------------
----------------------------
----------------------------


High:

The Heavens...
----------------------------
--10---10---10---9----------
--9----7----9----9----------
--7----7----7----9----------
----------------------------
----------------------------

Our Great God...
----------------------------
--10----10------------------
--9-----7-------------------
--7-----7-------------------
----------------------------
----------------------------

8 comments:

Anonymous said...

ya kNow, uR coNtriButiOn sUcks... reAlLy rEally baD...... i wiSh u wEr nEver bOrn so tHat u wOuldnT conTribUte sUch a waSteFul jOb.... juSt jOking bRo.............. hehehehe..... no jokIng i rEally loVe it.... juSt uR edIting i gueSs oF the viDeo, i dont lIke but jUst okAy..........

Skapi said...

Nice pants, man.

Anonymous said...

Nice work bro! God bless you even more!!

Anonymous said...

great work bro...

can i ask the chords for the chorus

Neil Rey Gallano said...

can i ask the chords for the chorus..

Basic Chorus chords:

A
Sing to the Lord
E
All my soul
F#m
Let the heavens
E
Shout for joy
Bm A E
Great is our God

there are insert connecting chords you can either play them of just play this main chords.

luke said...

Thanks Bro
helped me out heaps
no i can do two layer loops

ellamayrivas said...
This comment has been removed by the author.
ellamayrivas said...

e---------------------16|
b-10-12-14-9-12-14-19--|
g----------------------|
d----------------------|
a----------------------|
e----------------------|