Across the Earth

By Timothy

Here are the tabs for Across the Earth from the This is Our God album. Effects-wise, there's nothing special. I just use overdrive and compressor. Don't make it too crunchy.




Intro:
|--------------------------------
|--------------------------------
|-11-11-11---10-10------6-6------
|--------------------------------
|-9--9--9----8--8-------4-4--- x4
|--------------------------------


Verse:
If you're lead then do this
|-------------------*9-*9-*9-
|-*11-*11-*11-*9-*9----------
|----------------------------
|----------------------------
|----------------------------
|----------------------------

Bridge:
For you are great and mighty..
|---
|---
|-4-
|-4-
|-2-
|----

or

|---
|-4-
|-4-
|-4-
|---
|----

Chorus:
F# B D#m C#

then (check out the timing of the chord change in the video)
D#m C# (power chord. If you're on lead do octaves)

Verse
Bridge
Chorus

Then your kingdom reigns bit
B D#m F# B

thats it!

7 comments:

sasuke_kun12 said...

hey guys

forgot to add this

* = Palm Mute

and this part
Then your kingdom reigns bit
B D#m F# B

is actually
Then your kingdom reigns
D#m C#

Anonymous said...

Do i hear msn messenger bleeps during the vid:)

Jean Fredrik said...

darn it, i just spend a lot of time tabbing this out xD, but are you sure that it is octaves on the intro? it doesn't sound ilke it on the sound, and the verse part, if you listen closely it actually gets a bit heavier, and after the first chours it is some kind of instrumental

heres is my 2 cents
intro:

B-7-7-7---6-6---2-2
G-6-6-6---6-6---1-1

verse:

e-------------9-9
B-11-11-11-9-9

then

e----------------9-9
B-11-11-11-9--9--9-9
G-11-11-11-10-10----

instrumental:

B-12-11---12-11---11-7---9-6-
G-------8-------8------6-----6

but still good job, i couldn't figue out the chords

Jean Fredrik said...

intro:

B-7-7-7---6-6---2-2
G-6-6-6---6-6---1-1

verse:

e-----------------9-9
B-11-11-11-9-9

then

e------------------------9-9
B-11-11-11--9--9-----9-9
G-11-11-11-10-10----

instrumental:

B-12-11---12-11---11-7---9-6-
G---------8---------8------6-----6

sorry the tabs got messed up

Anonymous said...

hahaaa....yup...msn bleeps in the background! they sure were funny!

sasuke_kun12 said...

thanks jean. I'can hear chords more then i can hear other parts. I didn't include the other bits because i tab things in a 1 guitarist perspective coz thats how my band is set up at my church so i'm the lonely electric player

longge said...

The aggregation went on authoritative abounding baroque timepieces that were able-bodied accustomed all over the apple for their baroque architecture and qualities, and the in faddy Tag Heuer Aquaracer Watches is a appearance of its success. In the afterward years, Heuer bogus a alternation of acclaimed watches with convalescent adjustment and innovation.