This is Our God

This is probably my favourite song in the "This is Our God" album... its one of those songs where you have to find time to sit down and have a good listen to really appreciate..



I got the timing of the notes wrong for the chorus the 2nd time.. use the 1st version instead.

Tabs
Instrumental before 2nd verse
------------------------------------------------
-17--------16--------17--------17--17--17--19---
---16-(X4)---16-(x4)---16-(x4)---16--16--16--16-
------------------------------------------------
------------------------------------------------
------------------------------------------------

Intro & verse
Strum
------------------

------------------
-1--4-------------
-2--6--2--2--4----
-------4--0--0----
------------------

Pre-Chorus
Strum
--------------

--------------
-8--9--6--6---
-9--9--7--7---
--------------
--------------

Chorus
Use the first version in the video instead of the 2nd...
---12---12---12-16----11---11---11-14--

--------------------12---12---12-------
-13---13---13--------------------------
---------------------------------------
---------------------------------------
---------------------------------------

-----------------------------12--
---14---14--16-17----------------
-14---14-----------13--13h14-----
---------------------------------
---------------------------------
---------------------------------

I might have played the notes here too many times:
----12----12-----12----12-----
------------------------------
-13----13-----13----13--------
------------------------------
------------------------------
------------------------------

Loud part - strum
-4-----9---12--12---12--
-5--4--10--12--10---12--
-4--4--9---9---9----9---
----4-------------------
------------------------
------------------------
E B F#m C#m A E

7 comments:

Niall said...

Just a small point, the bit you labelled as the prechorus is the chorus, and the chorus the bridge!

Omar Fuentes Mateos said...

Hola, no hablo Ingles, pero si alguien lee este mensaje:

Help Me, I've one processor efects Tone Work Of Korg Model AX10G, I Don't Know moduler for Songs of Hillsong, Help Me please, thanks.

I've User's Manual, I don't Know user jejeje.

Sorry no speak english

Chris said...

is the delay used in this song eighth or dotted eighth?

Chester said...

HapiBlogging to you my friend! Have a nice day!

Daniel said...

---12---12---12-16----11---11---11-14--
--------------------12---12---12-------
-13---13---13--------------------------
---------------------------------------
---------------------------------------
---------------------------------------

i think the 16 and 14 fret notes are done by the keyboard.

j4m3z said...

Thanks for your video bro'

Daniel Erazo said...

in the solo part I sugest

-----12-----12-----12----16--12----
-----------------------------------
--13----13-----13-----------------------------------------------------


------11-----11------11--14----11--
--12-----12------12----------------
-----------------------------------

-----9-----9-----11--12------------
-10----10----10--------------------
-----------------------------------



---------------------12------------
-----------------------------------
---13h14----13h14------------------
-----------------------------------