Rise

By Jerome

Here's Rise by Hillsong London, in Hail to the King. I used overdrive here, similar to the Boss OD-1. Have Fun!



Intro: strum
--------------------------------
-10-7-10-7-10-7--9---9---9---14-
-9--7-9--7-9--7--9-9-9-9-9-9-14- 3x
-------------------9---9---9----
--------------------------------
--------------------------------

--------------------------------
-10-7-10-7-10-7--9---9----------
-9--7-9--7-9--7--9-9-9-9-9h11---
-------------------9------------
--------------------------------
--------------------------------

Pre-chorus:
--------------------------------
--------------------------------
-9-11--9-11-11--9-11-11--9-11-11-
--------------------------------
--------------------------------
--------------------------------

--------------------------------
--------------------------------
-11-11--------------------------
------11-11-11-9-11-11-11-------
-------------------------12-12-11-
--------------------------------

Chorus: power Chords of

D A E Bm F#m
D A E
D A E Bm F#m
D A E

Followed by: (it's like the break free bridge riff)
-----------
----7------
----6------
-----------
-----------
-----------
Strum

Chorus: (delay riff) before Instrumental
-----------------------
-10-10-9---10-10-9-----
---9----7----9----7-11-
-----------------------
-----------------------
-----------------------
rpt each note several times


Instrumental: strum and turn up
your volume here (I love the drum solo here)
--------12--------
-7------10-(3x)---
-6-(6x)-----------
------------------
------------------
------------------

Followed by: Continue strumming here
-9---5--7--10-----
-10--7--9--10-----
------------------ 2x
------------------
------------------
------------------

2 comments:

daniel said...

where can i get the chords?

longge said...

The afterward tips can advice you locate the absolute Replica Breitling but after the top amount tags that are generally attached. You can calmly be throwing your money out the window if it break or malfunctions, as you will not commonly accept a warranty. In 1906 the aboriginal Company endemic abundance was opened on the Quai de I'lle and the bazaar is still operating in the aforementioned area to this day.