I'm Not Ashamed (Hillsong London)

By Jerome

Here's the Studio version of I'm not ashamed by Hillsong United... it's very groove, and I like the broken chords too... hope you like it!



Intro:
---------------------------------
---------------------------------
---------------------------------
---------------------------------
----5-5-6-6-3-3---3-3-5-5--------
-3-3-----------3-3-------6-6-3-3-

---------------------------------
---------------------------------
---------------------------------
---------------------------------
-5-5-6-6-3-3-3-3-6-6-------------
--------------------6-6-5-5------

Verse:
---------------------------------
---------------------------------
---------------------------------
---------------------------------
-------5-5---------3-3-6-6--------
-3(12x)---6-6-3(8x)-------6-6-5-5-
Rpt this part several time refer to the video

Pre-Verse: It's very simple, but I prefer the Hillsong Australia Version
-------------------------------------
------11--11--11--11--11--11-11-10-10--
-10s12--12--12--12--10--10---------10--
-------------------------------------
-------------------------------------
-------------------------------------

--------------------------------------
------11--11--11--11--11--11--10(strum)-
-10s12--12--12--12--10--10----10------
--------------------------------------
--------------------------------------
--------------------------------------

Chorus: Strum Power Chords
--------------------------
--------------------------
----------8-------8-------
-8-s7s6-5-8-8-6-5-8-------
-8-s7s6-5-6-8-6-5-6-------
-6-s5s4-3---6-4-3---------

Instrumental:
--------------6-----(strum)------
--------------8b9b10-------------
---------------------------------
---------------------------------
------10(12x)--------------------
-3-3-3---------------------------

---------------------------------
---11----------------------------
-10--10--------------------------
-------12-10---10h12p10--10-10h12-
-------------12------------------
---------------------------------

---------------------------------
---------------------------------
---------------------12-12-10-10-
-10--10---8-10-8--8-8------------
--------12-----------------------
---------------------------------

---------------------------------
-----------------11-11-11-11-11--
------12-12-10-10------10-10-10--
-12-12---------------------------
---------------------------------
---------------------------------

---------------------------------
-11-13-13-11-11-13b15--then-r13--
-10------------------------------
---------------------------------
---------------------------------
---------------------------------
---------------------------------
---------------------------------
---------------------------------

7 comments:

Faith said...

I can't understand the part of the tab.

---------------------------------
---------------------------------
---------------------12-12-10-10-
-10--10---8-10-8--8-8------------
--------12-----------------------
---------------------------------

---------------------------------
-----------------11-11-11-11-11--
------12-12-10-10------10-10-10--
-12-12---------------------------
---------------------------------
---------------------------------

---------------------------------
-11-13-13-11-11-13b15--then-r13--
-10------------------------------
---------------------------------
---------------------------------
---------------------------------
---------------------------------
---------------------------------
---------------------------------

most of it

Faith said...

I got it!! tnx! :D

r3ck0rd said...

by the way, the intro is derived from the Hillsong Kids' version of the song.
http://www.youtube.com/watch?v=Koo9_rZ0Tmg

crusaders said...

what chords do it have?

Michael Vilorio said...

yeah we want chords!

Spoon said...

if i'm right i hear at the pre-verse:

--------10----10--------10---8-----
------11----11----11--11--11--11---
-10s12----12----12--10----------11-
-----------------------------------
-----------------------------------
-----------------------------------

Lucas said...

Take the chords!

Verse - Gm
Bridge - Eb | Bb | F
Chorus - Bb | Ab | Gm | Eb
Solo - Gm | Eb | F | Dm | Eb | Gm | F/A | F#dim (don´t play the D# in this chord) | Bb

Regards,
Lucas Abumanssur