Hail to the King (studio version)

By Jerome

Here's the studio version of Hail to the King.. I didn't get the right tone, apologies.



The riffs of the intro and other things are the same except for the instrumental, where they use the A minor pentatonic scale instead.

Instrumental:
For the first part i used a pitch modulator on my Zoom G1X, set at an octave lower.

-----------------------------
-5--5-----------------5-8-8--
--5--5--5-5-0--5-5-5-5-------
-----------------------------
-----------------------------
-----------------------------

---------------------------------
-5--5-----------------5-3--------
--5--5--5-5-0--5-5-5-5----10-9---
------------------------------10-
---------------------------------
---------------------------------

Followed by: (Am pentatonic)
------------------------------
------------------------------
-7b9-b9-b9r7p5-5-7b9-b9-b9-b9-
--------------7---------------
------------------------------
------------------------------

------------------------------
-------------------8----------
-b9r7p5-5-----5-7s9-9---------
-------7---5-7-------10-7-10--
------------------------------
------------------------------

strum
-------------------------------
----13-13-------15b17r15-13-15-
-10s12-12--(5x)----------------
-------------------------------
-------------------------------
-------------------------------

------------------------------
-15b17--15--13----------------
------------------------------
------------------------------
------------------------------
------------------------------

1 comment:

Juan said...

you played the bnding in 7b9
that not is in 5b7?