Hail To The King

By Jerome

Here's "Hail To The King" by Hillsong London. This song is in the Key of F




Intro and Verse:
------------------------
------------------------
------------------------
---3--2---3--2---3--2---
-3------3------3------3-
------------------------

C G F Bb C

-----------------------------
-----------------------------
-----------------------------
---3--2----------3--2---3--2-
-3----------1--3------3------
-------3--1------------------
Repeat each note, refer to the video.
Repeat several times through the verse.

Followed by: "Jesus Saviour.....Kingdom come"
-----------------------------
-----------------------------
-----------------------------
-----------------------------
----3----3----3----1---------
-1-----3----1----5-----------

F C G C F C Am Bb

rpt each note several time refer to the video

Chorus: same as Intro and verse

Instrumental:
-------------------------------
-5-5-----------------5-5-8-8-3-
-5--5--5-5-0--5-5-5-5--------4-
-------------------------------
-------------------------------
-------------------------------

-------------------------------
-5--5-----------------5-5-5-5--
--5--5--5-5-0--5-5-5-5---------
-------------------------------
-------------------------------
-------------------------------

-------------------------------
-6--5--5-----------------------
-------------------------------
-------------------------------
-------------------------------
-------------------------------

Followed by:
-8------------------------8-----
-11b13--------------------11b13-
-------10b11r10-8--8----8-------
-----------------10---10--------
--------------------------------
--------------------------------

Strum 3 times again
-8-------------------11--------
-11b13-(3x)--8-11-13-11-13-----
-------------8-10-12----12-----
-------------------------------
-------------------------------
-------------------------------

-------------------15----15----
-10b11r10-10-8-10--18b20-18b20-
-------------------------------
-------------------------------
-------------------------------
-------------------------------

-15--------------8-------------
-18b20-18-16--16-11b13---------
------------17-----------------
-------------------------------
-------------------------------
-------------------------------

End with the C Major scale, 4th pattern
-------------------------------
--------------4----------------
-----------3-5-----------------
--------3-5--------------------
-----3-6-----------------------
--3-6--------------------------


Bridge part: Oh oh oh eh oh...
-------------------------------
-------------------------------
-------------------------------
----6-----6--------3-----------
-3--3--3--3--3--7--1-----------
-1-----1-----1--5--------------
F C F C F Am Bb

3 comments:

jethrojesse said...

first

souledout55 said...

the song is in the key of C. please get it right

teejboy10 said...

does anyone know were you can find the lyrics?