Rise (studio version)

By Jerome

This version can be quite confusing - i used 5 diferrent G1X patches..



Intro:

-----------------------------
-----------------------------
-9-11--6-9--11--6--9--11-14--
-----------------------------
-----------------------------
-----------------------------

-----------------------------
-9-11-6--s11-----------------
-----------------------------
-----------------------------
-----------------------------
-----------------------------
rpt each note several times

Pre-chorus: it's similar on the live version, but uses a fuzzier sound.

-----------------------------
-----------------------------
-9-11-11-9-11-11-11-9-11-11-11-
-----------------------------
-----------------------------
-----------------------------

-----------------------------
-----------------------------
-9-11-11-11-9----------------
-------------11-11-11-9-11-11-
-----------------------------
-----------------------------

-----------------------------
-----------------------------
-----------------------------
-11-11-----------------------
------12-12-12-11-11-11------
-----------------------------

-------------------------------
-----------------------------
--
-9-11-11-9-11-11-11-9-11-11-11-
-------------------------------
-------------------------------
-------------------------------

------------------------------
------------------------------
-9-11-11-11-9-----------------
-------------11-11-11-9-11-11-
------------------------------
------------------------------

-----------------------------
-----------------------------
------14-14-14-13------------
-11-11-----------------------
-----------------------------
-----------------------------

Verse 2: I use Phaser here
-----------------------------
--7--7---5---5---------------
-6--6---6---6---------------- 2x
-----------------------------
-----------------------------
-----------------------------

Chorus: Normal chords

D A E Bm
D A E E
D A E Bm
D A E E

Verse: Crunchy sound (strum)
--------------
--10--10------
--11--9-------
--------------
--------------
--------------

Chorus: leading part
-----------------------
-7-10-9--10-9----------
-------9-----7-9-------
-----------------------
-----------------------
-----------------------

-----------------------
-7-10-9--10-9---7------
-------9---------------
-----------------------
-----------------------
-----------------------
rpt each note several times


Instrumental:
-----------------------------
-----------------------------
-----------------------------
-----------------------------
----4-4h5-4------7---7-------
-2-2-2-----2--5-5-5-5-5-7----

-----------------------------
-----------------------------
-----------------------------
-----------------------------
----4-4h5-4------7-----------
-2-2-2-----2--5-5-5-5-7-7-7--

Follewed by a harmonic running delay
-------(7)-
-(7)-------
-----------
-----------
-----------
-----------

6 comments:

Ryan said...

hey Jerome,
just out of curiosity, but i noticed
the rings on your right-hand fingers
now :P
do they make a good difference
in the sound?
cause i was thinking about getting
some rings too sometime

Guitar_man32@yahoo.it said...

hahaha, no.... not really


Jerome

Ryan said...

oh okay, it just reminded me
of Nigel Hendroff's from Hillsong and I've heard rumors that it made his sound different when he played.

Faith said...

haha, i think wearing rings looks good! :D

andrés4jesus said...

In what key is this song?

Chris said...

in the second verse rather than using a phaser i think the sound is gotten from a chorus effect with a bit of delay thrown in