All Because of Jesus

Here's All Because of Jesus by Fee... lots of dotted 8th note delays in the verse, so get your delay pedal ready. I've also done the verse without the backing track so you get a clearer idea of how its done.



Tabs
Intro & Verse
Lead melody:
-10-8----10-8---12--
------8-------8-----
--------------------
--------------------
--------------------
--------------------

Delay part (i think mine might be a little simplified than the cd version). Mute the G string slightly.
---------------------------------------
-----6-----6---5-----5-----5---5-------
-5-5---5-5---5---5-5---5-5---5----(x3)-
---------------------------------------
---------------------------------------
---------------------------------------

-----------------------------------
-----8-----8---8------8------------
-7-7---7-7---7----7-7---7-7-9-9-9--
-----------------------------------
-----------------------------------
-----------------------------------

Pre-chorus
Use a tremolo pedal, 16th note setting.
---3--------------

------0--------1--
-5-------0--------
------------3-----
------------------
------------------

Chorus
Strum
----------------------

----------------------
-5--7--5----10-9-5----
----------------------
-3--5--3----8--7-3----
----------------------

----------------------
----------------------
-5--7--5----10-9-10---
----------------------
-3--5--3----8--7-8---
----------------------

------10--------10------10---
----8--------8--------8------
-10-------10--------9--------
-----------------------------
-----------------------------
-----------------------------

then end the chorus with
------10---
----8------
-10--------
-----------
-----------
-----------

13 comments:

kevin said...

yes dude, i needed this tab thank you so much man. awesome job

CCB Podcast said...

This is like one of the best songs ever!

I played it like you, but sometimes the save octive, just on different strings


God Bless, and keep 'em coming!

Romka said...

hey man what settings are you using on PODxt ? i think you got that one right?

pohwei said...

which pickup did you use?

Justin said...

just want to mention in the delay part, when you repeat it the third time, you can add 8's instead of 5's before going up like this:
----------------------------------
-----6-----6---8-----8-----8---8--
-5-5---5-5---5---5-5---5-5---5----
----------------------------------
----------------------------------
----------------------------------

Thanks!!

mpardo said...

Which delay setting are you on?

Muchos Gracias! Thanks Pal! :)
GOD BLESS!

cowboycliffd said...

hey can u tab, sing and praise!!!

mysteryofyou said...

What key is this in. My church plays it in they key of A and i want to transpose it from the original. Thanks.

Ethan said...

Hey, nice job. Pretty accurate. Just next time you do a video with a bunch of delay make sure its the same tempo. So pedals/amps are hard to adjust I know. But anyway. Nice job.

ken2012 said...

The Replica Cartier Watches was already a advance apparatus to advice the accepted man accumulate his activity beneath control. Among the world's a lot of adorable watches are those by Piaget, a aggregation founded in 1874 by Georges Edouard Piaget, a agriculturalist in La-Cote-aux-Fees, a apple in the Jura mountains of Switzerland.

dane said...

Hey great job! I am needing a little help, I have the Pod x3 live and just cant seem to get the delay right. Do you by any have a patch that you could send me, or direct me to? Thanks so much

GuyC said...

Hey guys, the original is in the key of F. the verse part is an F chord using a D hand voicing and messing around with it. Its a very cool technique/style to learn and understand for your own play techniques.

Guitar Lessons Sarasota

Nicholas Exner said...

Love your website. Thanks for sharing!