Christ Divine

Here's Christ Divine by Mia Fieldes, one of my favourite tracks in her album. This song has a pretty long solo, here it is:



Tabs
--------------------------
--------------------------
-5---4--------------------
-------2-0---2b3r2--------
-----------3-------2-3-5--
--------------------------

----------------------------------
-------------------8----8---------
-5--9-4---------7h9--7h9--7-5-4-0-
--------5---2---------------------
----------2-----------------------
----------------------------------

------------------------15-------
-13--12-13-15-13--12-13----13----
---------------------------------
---------------------------------
---------------------------------
---------------------------------

---------------------------------
-12-13p12------------------------
----------14-14s16-16--14-12--14-
---------------------------------
---------------------------------
---------------------------------

-----------15-----------15s17----
-13--12-13----13--12-13----------
---------------------------------
---------------------------------
---------------------------------
---------------------------------

-17-15-15s19--19-
-----------------
-----------------
-----------------
-----------------
-----------------

3 comments:

Romka said...

dude .. sounds so cool .. do you know the chords for that part?

heyitzda said...

Awesome song. The problem is I can't find any chords for it at all. Anyone got them?

Dannay!! said...

Well I kinda got the verse.
I think it's:
C, Am, F, G
C, Am, F, E

The Reuben Morgan's version is 1 1/2 key up from Mia's version.