Solid Rock

By Jerome

Here's a new song from New life Worship, in their album 'Counting on God'. Have Fun!




Intro: with delay
---------------------10-9---
-12--10----12--10--12-------
--------11------------------
----------------------------
----------------------------
----------------------------

---------------------10-9---
-12--10----12--10--12-----12--
--------11------------------
----------------------------
----------------------------
----------------------------
rpt each note refer to the video

Pre-Verse, Verse and Pre-chorus:

Same notes but played differently, refer to the video again.


Chorus: Power Chords
-------------------
-------------------
-----7------------- rpt 4x
--5--7--7--9-------
--5--5--7--9-------
--3-----5--7-------
G D A Bm

Followed by the Intro riff again.

Bridge:
----------------------------
-12---12---12--12-12--12-10-
---11---11---11-------------
----------------------------
----------------------------
----------------------------

----------------------------
----12-10-12--12-10---------
-11----------------11-------
----------------------------
----------------------------
----------------------------

Followed by the intro riff again.

Chorus: same cHords but played with scratches

Outro: same as Intro

Reprise: with delay as usual
----------------------------
-12--10---10-12-------------
--------11------------------ 2x
----------------------------
----------------------------
----------------------------
rpt each note refer to the video

Followed by a solo:
----------------------------
-14-15-15--15-14-15--17-15--
----------------------------
----------------------------
----------------------------
----------------------------

----------------------------
-14-15--14------------------
-----------14-14------------
----------------------------
----------------------------
----------------------------

----------------------------
-14-14-15-14----14-15-14-15-
------------14--------------
----------------------------
----------------------------
----------------------------

----------------------------
-17-15----------------------
------14-14-----------------
----------------------------
----------------------------
----------------------------

----------------------------
-15-14---(4x)-15-14-15-14---
------14--------------------
----------------------------
----------------------------
----------------------------

----------------------------
-17-15-14-------------------
---------16-14-16-----------
----------------------------
----------------------------
----------------------------

3 comments:

Joe said...

This is such a sweet song, thanks for introducing me to it and teaching me how to play it!

Keep up the good work, it is very appreciated.

James said...

Can someone do the other guitar part? i got most of it, but little bits and pieces i can't figure out. so if anyone knows the other guitar, put it up if could!

longge said...

Throughout 2008 pandora braclets has accomplished a acceleration in the amount of retailers adulatory to undertake a Pandora boutique fit. The ‘shop in shop’ abstraction is a acutely authentic amplitude in a store, alone is committed to Pandora. The ‘shop in shop’ is comprised of Pandora accessories and displays.