What This World Needs

Here's the instrumental part to Casting Crowns' 'What This World needs', a song which i find highly original. I've included the chorus at the end, just to let you guys have a listen.



Tabs
Dotted 8th note delay.
--------------------------------

-13..-15...---s10-10-10-10-10---
---------------s9--8--9--8--9---
---------------s7--7--7--7--7---
--------------------------------
--------------------------------

Strum
--------
-8--10--
-9---9--
-7---7--
--------
--------

----------------15..--
-13..-15..-17..-------
----------------------
----------------------
----------------------
----------------------

-------17--17...------
-20b22-----20b22...---
----------------------
----------------------
----------------------
----------------------

For the chorus, strum:
F Dm G Am
F Dm G Am

3 comments:

Tommy said...

Um.. what effects do you need?

Tommy said...
This comment has been removed by the author.
Tommy said...

It doesnt sound right when i tried this.
-----------------
s10-10-10-10-10--
s9--8--9--8--9---
s7--7--7--7--7---
-----------------
-----------------