High and Lifted Up

By Jerome

Here're the tabs for this song, have fun! The song is in the key of F



Intro: I Use a Double delay here
-----------------------------
-10--13-11-10-8--6-----------
-----------------------------
-10--15-12-10-10-8-----------
-----------------------------
-----------------------------

-------------------6---------
-10--13-11-10-8--6---6-------
-----------------------------
-10--15-12-10-10-8---7-------
-----------------------------
-----------------------------

Verse:
-----------------5-----------
-8---6--6--8---6---6---------
-----------------------------
-10--8--7--10--8---7---------
-----------------------------
-----------------------------

-----------------------------
-8---6--6--8---6-------------
-----------------------------
-10--8--7--10--8-------------
-----------------------------
-----------------------------


Pre-chorus:
----------------6-------------
---6----8--6---6--------------
--7---10--7---7---------------
-8---8---8--------------------
------------------------------
------------------------------

Chorus:
-----------------------------
---5--5--5-4----5--5--5-4----
--4--4--4---4--4--4--4---4---
-6--7--4------6--7--4--------
-----------------------------
-----------------------------

-6-5--------------5--8-------
--6-6-6--6-6-5---6--6-5------
-----5--5---5---5------------
-------8---------------------
-----------------------------
-----------------------------

6 comments:

Patrick said...

good stuff. thanks for posting.

NB said...

Hey kenny nice song!! Thanks for your effort!
They are still using dotted eight note delay on the new cd?
I wonder if you could tell me what patches you are using on this song. Because I don't like the clean sound I have.

Thanks friend! Nick from Argentina

NB said...

Sorry Jerome, the comment was for you! =)

khimuell said...

Hi there Kenny, can you please tab out the "high and lifted up" song..as what nigel is showing on his guitar workshop in youtube(especially the chorus part)..thanks a lot..God bless

zayrocs said...

try
-----------------------------
-10--8s13-11-10-11-8--6------
-----------------------------
-10-10s15-12------10--8------
-----------------------------
-----------------------------

------------------------6----
-10--8s13-11-10-11-8--6---6--
-----------------------------
-10-10s15-12------10--8---7--
-----------------------------
-----------------------------

zayrocs said...

this should be better
-----------------------------
-10--8s13-11-10-11--8--6---
-----------------------------
-10-10s15-12-------10--8---
-----------------------------
-----------------------------

--------------------------6---
-10--8s13-11-10-11--8--6---6-
-----------------------------
-10-10s15-12------10--8---7--
-----------------------------
------------------------------