We Shine

Here's We Shine by Fee, a Delirious-ish sounding song. Fee's songs are fairly fast, so it can get tiring playing them! Also, I split my humbuckers to get a single coil sound, which Fee's guitarists use.



Tabs
Intro
---------------------------------------13-13---
-13-15-15-13-15-15-13-15-15-13-15-13-13-----13-
-----------------------------------------------
-----------------------------------------------
-----------------------------------------------
-----------------------------------------------

Verse
(Also played in the intro)
----------------------------------------
----------------------------------------
---2---2--0-----0-------2---2-0-----0---
-0---0--0---3-0---3-------------3-----3-
----------------------1---1--1----1-----
----------------------------------------

---------------------------------------
---------------------------------------
--2--2-0-----0------2--2-0-----0-------
---------3-----3-----------3-----3-----
-3--3-3----3---------------------------

------------------3---3-3----3---------

Pre-Chorus
Just one note:
-----

-15--
-----
-----
-----
-----

Chorus
I used lots of downstrokes, but it was quite tiring.. you might like to try both down and up strokes here:
-------------------
-7-7-7-8-8-8-10..--
-7-7-7-7-7-7-7...-- x3
-------------------
-------------------
-------------------

-------------10-10-10-10..--
-7-7-7-8-8-8-8--8--8--8...--
-7-7-7-7-7-7-7--7--7--9...--
----------------------------
----------------------------
----------------------------

4 comments:

tzantzaru said...

I was waiting for this tab. especially the verse part. thanks a lot.

Emmanuel said...

Their best song is All because of Jesus by a LONG way!

jonathan said...

this is for kenny,

can you help me to learn the song "you are there by salvador"?


thanks bro...

Chris said...

Thank you so much this helped a ton.