All Deserving

I recently sampled a copy of Mia Fieldes' album, 'There's a Reason', and immediately fell in love with the songs! If you didn't know, Mia Fieldes is one of the singers/songwriters in Hillsong; she wrote songs like Sovereign Hands and Here In My Life. The arrangements in this album are more laid back, giving you the space to worship God in an intimate way. This is pretty different from the aggressive, 'in-your-face' type of worship that we've been hearing alot lately.



Tabs
Intro
----------------------------------

-----8-8b9r8-6--------------------
-8-------------8---5-5b6r5--------
---6-------------6---------8------
----------------------------------
----------------------------------
End with an '8' on the G string.

Verse
Repeat each pair of notes 4x
-8----8---6---6----8----8---6--6--

--11---9---9---8----11---9---9--9-
----------------------------------
----------------------------------
----------------------------------
----------------------------------

Pre-Chorus
--------------8-------------------
----9----9-11-------9----9-11-----
-10---10---------10---10----------
----------------------------------
----------------------------------
----------------------------------

Chorus
One guitar plays (repeat each pair 4x)
-8---6----8---9----
--9---9----9---9---
-------------------
-------------------
-------------------
-------------------

Another guitar strums
----------------------------------
----------------------------------
-13--8--6--10-12--13--------------
----------------------------------
-11--6--4---8-10--11--------------
----------------------------------

1 comment:

Márcio said...

Absolutely amazing song.