Great in All the Earth

Finally bought the 'I Will Go' by Starfield! Here's my favourite song from the CD, Great in All the Earth, hope you like it too.



Intro
---12-----------12-------------
-------12-14--------12-14-12---
-14--14-------14--14--------14-
-------------------------------
-------------------------------
-------------------------------

Verse
Rhythm guitar strums:
-0----0---0---0---
-14---12--15--17--
-14---14--14--16--
------------------
------------------
------------------

At the 2nd half, the lead guitar plays:
---------9----------------9-----12--12--12--12---
-9h10------10-9---9h10------10----12--12--12--12-
------11---------------11------------------------
-------------------------------------------------
-------------------------------------------------
-------------------------------------------------

Chorus
Strum
-----------------------------
---------------
-10-12-14---7-10-12-14---10-14---12---7-5-9-
--------------------------------------4-2-6-
-7--9--11---4-7--9--11---7--11---9----------
--------------------------------------------
--------------------------------------------

4 comments:

dngertox said...

um what was ur setting for this effect?

longge said...

It been a while back we accept accounting but to be honest we got absolutely captivated up in the Pandora jewelry Valentines explosion. It was’nt that her bedmate kept traveling to bastille and affairs one on acknowledgment but in actuality the actuality that he was affairs a additional amount version. Men accumulate on affairs for your ladies and you wont end up in prison.

Falinfashi said...

To select from is indeed significantly wide that you will find elaborate jewelry designs in addition to elegant and straightforward designs. pandora.Buying clothes for comfort can also be yet another practical factor. However, we have a pre-conceived notion that comfortable clothes are not usually stylish and cause you to be appear cool. pandora uk.Positive thing there exists Ed Hardy Clothing. These clothes, although stylish, come in lightweight and comfortable material - permitting individuals to move freely. pandora. A person word of advice-I would prevent acquiring any specific silver jewelry that's not sterling. Pandora Jewelry. Repelling any terrible ingredient during the heavy snow as well as nippy wind, it keeps toes warm along with dry anytime all through winter. ghd sale.Necklaces who have similar sized beads work effectively on tall women and chokers help decrease each side height. ghd straighteners.It truly is accurate cheap Ugg Boots provide method aficionados terrific in addition to broad possibilities to spice up their shows. rrncluding a white and pink compact mirror.ugg boots sale.Longer necklaces aid lengthen each side round or square faces.wedding rings Furthermore they add length when worn beneath the bust-line but above the waist.

ktplayer said...

You may also cause nice hair glimpse beautiful and even excellent straightforward designs. Juicy Couture.The idea of better means of furnishing suppleness together with wellbeing within the total design course of action features made method for high-quality user-friendly appear cool. juicy couture outlet.which will make the whole process of styling along with styling faster and easier and period keeping presently to move freely. juicy couture tracksuits. Most people store pandora uk in your box and the airtight plastic to protect yourself from the dust and possible chemical liquid touch. juicy couture swimwear. It truly is accurate cheap Ugg Boots provide method aficionados terrific in addition to broad possibilities to spice up their shows. rrncluding a white and pink compact mirror.pandora uk.Longer necklaces aid lengthen each side round or square faces.wedding rings. The expert jewelry collectors advise to keep the jewelry stay while they are having rest.