Across the Earth

By Jerome

Here's my take on the song, have fun!



Intro: strum
----------------------
-7--6-----------------
-6--6--3-3-3---------- 4x
----------------------
----------------------
----------------------

Verse: lead guitar, use palm mutes
----------------------
--7-7-7-6-6-----------
----------------------
-----------8-8-8------
----------------------
----------------------
repeat this part for the whole verse


2nd guitar
-------------------------
----------------14-14-14-
--15-15-15-13-13---------
-------------------------
-------------------------
-------------------------
repeat this part, refer to the song

Followed by some strumming:
----------------------
---------14-----------
-15--13--13-----------
-16--16---------------
----------------------
----------------------
Repeat this part, refer to the song

Pre-chorus:
----------------------
--12---12-------------
--11---11-------------
--9----11-------------
----------------------
----------------------

Chorus: Strum
----------------------
--11--12--11--9-------
--11--11--11--10------ 2x
--11--11--11--11------
----------------------
----------------------

Bridge: play each note refer to the video
-11-14-18-14---13---------
------------14---14-------
-------------------13----- 2x
--------------------------
--------------------------
--------------------------

4 comments:

Lucas said...

Hey guys!
I really like you site, it helps me A LOT!!
thanks...

but...
why don't you post some Third Day songs?
what about Consuming Fire?
you should post this song!!

God bless!!

Temo said...

AWSOME JOB Jerome!!!
I love the t-shirt!!

ricardo said...

do you have the settings for G1X pedal?

Jay said...

I know this is late but guitar is that? Lol.