Alive in You

By Jerome

Here're the tabs of Alive in you by Hillsong. I Love this song, it's very joyful... Anyway I used a fuzz drive and delay effect for this song, which is in the key of A.



Intro:
-------------------------------
-------------5-5-5-------------
--6-6-6-4-4-4-----6-6-6-4-4-4-6-3x
-------------------------------
-------------------------------
-------------------------------

A D F#m D

Followed by:
-------------------------------
-------------------------------
-7-7-7-6-6-6-4-4-4-4s7-7(5x)-6-
-------------------------------
-------------------------------
-------------------------------

Verse: strum
--------------------------
--------------------------
--6--7--9--6--7--9--6--9--
--7--7--7--7--7--7--7--7--
--------------------------
--------------------------

Pre-Chorus: strum
-2--9---4--2--9----14-----
-3--10--5--3--10---15-----
-2--9---4--2--9----14-----
--------------------------
--------------------------
--------------------------

Chorus: strum
--------------------------
--10--10--10--10----------
--9---9---7---9-----------
--7---7---7---7-----------
--------------------------
--------------------------

Pre-Verse:
-------------------------------
-------------5-5-5-------------
--6-6-6-4-4-4-----6-6-6-4-4-4-6-2x
-------------------------------
-------------------------------
-------------------------------

End with a Bending up and down on the note 6

Verse 2: Running Delay part
-------------6-----------------
----5-----5-5------------------
-6-7-6-7-6---------------------
-------------------------------
-------------------------------
-------------------------------
rpt each note refer to the video

Bridge: Strum refer to the video
--------------------------
--10--10--10--10----------
--9---9---7---9-----------
--7---7---7---7-----------
--------------------------
--------------------------

Instrumental:
--------------------------------
-------------5-5-5--------------
--6-6-6-4-4-4-----6-6-6-4-4-4-6-3x
--------------------------------
--------------------------------
--------------------------------

-------------------------------
-------------------------------
-7-7-7-6-6-6-4-4-4-4--6(6x)----
-------------------------------
-------------------------------
-------------------------------

5 comments:

Lucas said...

c'mom people!!
allways the same bands??

don't you know Third Day??
O.o

krnballer4967 said...

i really like this song but cant find it. what album is it from?

CRUNC said...

its on the This Is Our God album, but its only in the dvd.

Sorry for my english!!

GBU

Chris said...

I think for intro it goes

---------------------------------
---------------------------------
--6-6-6-------9-9-9-6-6-6-----6--3x
--------7-7-7-------------9-9----
---------------------------------
---------------------------------

---------------------------------
---------------------------------
--6/7-7-7-6-6-6-4-4-4-4/7-7(6x)--
---------------------------------
---------------------------------
---------------------------------

but that's just me.

jackfrost said...

What are the chords for the whole song?