Your Name High

The new album from Hillsong, 'This is Our God', just came in my mailbox today.. here's the first track from the cd, enjoy!



Tabs

Intro & Chorus

This is played by a synth, but should work fine with an electric too.

-5-0-5-7-0-7-9-0-9-12-0-12-14-0-12-0-
-------------------------------------
-------------------------------------
-------------------------------------
-------------------------------------
-------------------------------------

Chords (intro): F#m A D A E


Verse
Sounds like a synth, but I think it sounds like this on the electric.. (use 8th note delay)

---------9----9----9----9----------------

----9------10---10---10---10-9-10-9-10-9-
-11---11---------------------------------
-----------------------------------------
-----------------------------------------
-----------------------------------------

Repeat, followed by: D F#m E

Play D to enter chorus.

Chorus chords
A E F#m E
D F#m A D

Interlude
Play each note several times, 8th note delay.
----12----12-14-12---------
-14----14----------14-12---
---------------------------
---------------------------
---------------------------
---------------------------

Chords: F#m A D A E

Bridge
Play each note several times, 8th note delay.
-----------------
-----------------
-11--13--14--16--
-----------------
-----------------
-----------------

-----------------
-----------------
-11--13--14--16--
-----------------
-9---11--12--14--
-----------------

15 comments:

guitar_pic said...

Wow, awesome stuff Kenny. Thank God your thumb is back in fine shape.

[DTC] said...

Man. I love you(in a non-homosexual way =p) I know you guys have a hard time living your life and also making tabs for us. Thank you so much =].

AND AWESOME JOB!! =]

j. yoon photo said...

Man, I was wondering when you would get your copy!!

:D :D

Jon said...

Sweet awesome song great tab.Thanks!Keep on Rockin for Jesus!

Sly said...

strumming of the woah!!! intro it sounds good but yeh try it

-9----12----14----12----9----7--
-10---14----15----14---10----9--
--------------------------------
--------------------------------
--------------------------------
--------------------------------

Yean Wern said...

hey kenny! great job! oh btw. what is a synth?

Makii said...

Nice Job .. I learned alot from hard workers like kenny and the rest..

God Bless To You ALL!

Anonymous said...

a synth is a synthesiser, or synthesizer. it's basically a keyboard.

tonyrocks724 said...

hey man im 14 i live in florida and play guitar at my church... and let me tell you that you guys have been a enormous help to me and other band members ..thanks alot i really honor what you guys do

ubeng said...

hey Nigel Hendroff put a vid on this song and a few others! i think it may help you guys

http://www.youtube.com/watch?v=5F_Cuvqw5LU&NR=1

Guitar_man32@yahoo.it said...

K can you tell us your Pod xt live patch here?


Jerome

kenny said...

Patch 1C on my pod XTL library.. class 30 + classic distortion..

Jeffrey said...

hey! Im Jeffrey Galuno from the Philippines. Thanks a lot for the tab of this song! Keep it up! This is a great help for me! Please do pray for us here in the Philippines. this is my email add. j_galuno@yahoo.com Our church website www.gracechristianbaptist.org

j_galuno said...

Bro. jgaluno@gmail.com is the other one! Thanks a lot again

nico said...

hello...just want to ask...what is the brand and model of your gadget?

thanks

pls send me an email...nic0h_one@yahoo.com