You Deserve (Hillsong)

Here's You Deserve from Hillsong's 'This is Our God'. Check out the new ending pic! Contributors pls download it for your videos.



This is quite a simple song; use dotted 8th delay throughout, and play each note several times.


Tabs

Intro

Rhythm (no delay)
------
------
--5---
--6---
------
--4---

Lead
---------------------

-9-11-13---11--14----
---------------------
---------------------
---------------------
---------------------

Verse
This part is really easy:
------------

-9----14----
------------
------------
------------
------------

At the same time, another guitar plays
---------------------------------------
-9-----9-----9----8-----8-----8--------
---8-8---8-8---8----8-8---8-8---8------
---------------------------------------
---------------------------------------
---------------------------------------

Pre-Chorus
This feels like a tongue twister on the guitar..
-----8---------------------------------
-------9-----11-9----8h9-----9---------
-8h10------8-------8------10---10------
---------------------------------------
---------------------------------------
---------------------------------------

Chorus
Strum
-------------------------------------------
-14--13--11---14--13--9---14-13--11--14-16-
-13--13--8----13--13--8---13-13--8---13-14-
-------------------------------------------
-------------------------------------------
-------------------------------------------

Bridge
Start with the 11th fret on the E string, followed by:
-8--9--4---
-----------
-----------
-----------
-----------
-----------

Alternatively, you can play
-----------
-13-14-11--
-----------
-----------
-----------
-----------

Instrumental-ish part before the chorus
----------------------
-14--13----------13---
---------13--14-------
----------------------
----------------------
----------------------

14 comments:

Anonymous said...

thank u so much kenny

this is such a good song, especially the guitar in the pre chorus, been waiting for you to tab it :D

cheers!

Anonymous said...

really good tab

but i think some of the prechorus notes might be a bit out,
i think u start on the 8 not the 7?

not sure tho

kenny said...

My bad, sorry! I've made the changes..

scott said...

awesome kenny. May God continue you bless you. You have blessed my life in many ways.

Jonathan M said...

Nice kenny!Cool song.Next song I have to learn.

Matt said...

hey just wondering if the 14 on the G string is meant to be 15 in the
Instrumental-ish part before the chorus..?

Tibbs said...

Yeah matt's right with the 14th meaning to be bumped up a fret to the Bb.
Also the last chord in the chorus, instead of 14th and 16th, it should be 15th and 16th?

Anyway thanks heaps for this =)

vezza94 said...

---------8---4-------6---4---------------3---4------4-----------
---4--------------4----------slide to-4-----------6------6---4--
--------------------------------------------------------------------
--------------------------------------------------------------------
--------------------------------------------------------------------
--------------------------------------------------------------------


This is what I play for the pre-chorus,i find its a lot easier then what you have tabbed out,and it sounds the same as what your playing.

robert said...

http://www.youtube.com/watch?v=a48cL5jBcC8
hey do u think you can show and tab this video out be awesome man =]

jrbilodeau said...

Instrumental-ish part before the chorus
----------------------
-14--13----------13---
---------13--15-------
----------------------
----------------------
----------------------

there was a little mistake in the tab. you play 15 in the vid but the tab said 14.

Sambek_ZX said...

Pre-chorus Riff in Nigel's Video:

----8-4------6-4------3-4---4-----
4h6-----(s)4-------s4-----6---6-4-
----------------------------------
----------------------------------
----------------------------------
----------------------------------

He does the first 5 and the 7th repetition without the slide in parenthesis. Listen to the rhythm.

He ends it out with triads in Db, Eb, Fm, and Ab. Watch the string muting.

4-4-4--6-6-6--8--8--8-s11-11-11-11
6-6-6--8-8-8--9--9--9-s13-13-13-13
x-x-x--x-x-x-10-10-10-s13-13-13-13
6-6-6--8-8-8----------------------
----------------------------------
----------------------------------

denmar said...

..hey bro.. i am well blessed in this tab..
yeah its quiet hard but i appreciate it..
..God Bless you more..CONTINUE 2 SERVE GOD....

gino said...

what is the milliseconds of the dotted eigth note delay for this song

Rob said...

Yea, Nigel plays a little unorthodox. The Pre-Chorus Kenny tabbed out is the easiest way.

I'm formally trained and prefer to keep such a pattern in a stationary scale box!