Today

By Jerome

Here's the second song of the album All For Love by Planetshakers.I missed the verse part... apologies...



Intro:
----------------------
------2-2-------------
-4(4x)---3-3-3-4(8x)--
----------------------
----------------------
----------------------

-------------------------
------2-2---------5-5-6--
-4(4x)---3-3-3-4-4-------
-------------------------
-------------------------
-------------------------
rpt twice

Verse: just play the 2 bass notes
-------------------------
-------------------------
-------------------------
--4-----------4----------
--2--6--4--2--2--6--2--2--
-----4--2--0-----4--0--0--
B G#m F# E B G#m E E

Rpt through the whole verse


Pre-chorus: with delay
--------11--------14----
-11--12----11--12-------
------------------------
------------------------
------------------------
------------------------
Rpt each notes several times refer to the video


Chorus: (rat Drive) Play the power chords
-------------------------
-------------------------
-4---4------------4------
-4---2------6-----2-------
-2---2------6-----2------
------------4-------------
B E/B G#m E/B

Rpt several times refer to the video

Pre-verse: same as the intro riff.

Bridge: delay here and palm muting
-------------------------
-------------------------
-------------------------
------------11----------- 2x
-11--13--14--------------
-------------------------

-------------------------
------------14-----------
-13--15--16--------------
------------------------- 2x
-------------------------
-------------------------
Rpt each notes several times refer to the video

Followed by: a heavy strum part

G#m B E/B C#m
G#m B E/B C#m
G#m B E/B C#m
G#m B E/B B

Just hang a little bit on the last
E/B then end with a strum with B.



Zoom G1X Settings:

Intro, pre-Verse


Comp/EFX. oF

Drive: bG
Gain: 23

EQ
Low: 18
Mid: 18
Hi: 18

ZNR/Amp: S2

Modulation: 0f

Delay: D4
Time:38

Reverb: s3
decay: 20


Pre-chorus: Pedal assign quite open

Drive: od
Gain: 16

EQ
Low: 18
Mid: 18
Hi: 18

ZNR/Amp: 5

Modulation: 0f

Delay: D4
time: 34

Reverb: s3
decay: 20


Bridge part 1: Pedal assign (not definitly close )

Drive: Fd
Gain: 19

EQ
Low: 13
Mid: 13
Hi: 12

ZNR/Amp: 2

Modulation: 0f

Delay: D4
time: 35

Reverb: S3
decay: 20


Chorus, Bridge part 2:

Drive: rt
Gain: 30

EQ
Low: 18
Mid: 18
Hi: 18

ZNR/Amp: 8

Modulation: 0f

Delay: off


Reverb: H1
decay: 10

2 comments:

yeaN WerN said...

hey i think the last part is wrong

you put -------------------------
------2-2---------5-5-6--
-4(4x)---3-3-3-4-4-------
-------------------------
-------------------------
-------------------------

but maybe the 5-5-6 should be

-------------------------
------2-2---------5-5-4--
-4(4x)---3-3-3-4-4-------
-------------------------
-------------------------
-------------------------

i'm just saying/ cause im confused

Felix said...

ur right, its a 4 not a 6.