All For Love

By Jerome

I finally got "All For Love" 2008 by PlanetShakers.... have fun with the video. Apologies if its confusing though!



Intro:

Slide from the 3rd to 5th fret

followed by:
--------------------------------
--------------------------------
--------------------------------
------2-2-2---------6-6-6-------
-----------4-4-----------7-7----
-2-2-2---------5-5-5------------

--------------------------------
--------------------------------
------------------7-7-7-7-------
------7-7-7-7-------------------
-5-5-5-----5--------------------
-------------7-7-7--------------
rpt twice

Then strum D power chord


Verse: use slide for fun
--------------------------------
--------------------------------
--------------------------------
--------------------6-6-6-------
------7-7-7-4-4----------7-7----
-5-5-5---------5-5-5------------
rpt 2x

Followed by: Strum
--------------------------------
--------------------------------
--------------4--7--------------
-9-----7------4--7--------------
-7--4--5--7---2--5--------------
----2-----5---------------------

E F#m D A Bm D

Chorus: Power Chords

F#m A D D 2x
E F#m D A
Bm D

Bridge: Running delay, palm muting on the strings
--------------------------------
--------------------------------
-14--13--16--14-13-14-13--------
--------------------------------
--------------------------------
--------------------------------

Then: High A Strumming part, a crunch sound
-------------
-14----------
-14----------
-14----------
-------------
-------------
quite like Break free, don't you think?

End it with: Strum (Octaves)
--------------------------------
--------------------------------
-11-13-14-16-11-13-11-16-13-14--
--------------------------------
-9--11-12-14-9--11-9--14-11-12--
--------------------------------

Zoom G1X Settings:

Intro,Verse, Chorus


Comp/EFX. oF

Drive: Pu
Gain: 25

EQ
Low: 18
Mid: 18
Hi: 18

ZNR/Amp: b1

Modulation: 0f

Delay: off

Reverb: s3
decay: 20


Bridge: delay part

Drive: bG
Gain: 27

EQ
Low: 18
Mid: 14
Hi: 16

ZNR/Amp: S1

Modulation: 0f

Delay: D4
time: 31

Reverb: s3
decay: 20

Bridge part 2: Crunch riff

Drive: bL
Gain: 23

EQ
Low: 18
Mid: 18
Hi: 18

ZNR/Amp: S0

Modulation: 0f

Delay: D4


Reverb: s3
decay: 20

7 comments:

-Ben Soo- said...

Woohoo! haha.. Thanks dude! Was waiting for this tab for quite awhile! haha! keep it up! your ministry is really reaching out! God Bless!

Anonymous said...

This is the best song in the album. I love it so much! Gerome, you're absolutely hot!!

Anonymous said...

Oops spelled you name wrong haha... Jerome.

Josh said...

Hey could u do a cover for The Anthem by Planetshakers...

John said...

Nice Bro Thank You!

Kewyn said...

Respect

iser said...

great work!! can I have a favor?
Can anyone give me a zoom g1xnext patch setting for hossana and evermore?
pls. thanks God Bless!