Reign in Us

Here's Reign in Us from Starfield's latest album, I Will Go.



Tabs

Intro
Play each note several times
-----------15-12-----------------------
----15-13-------------15-13-13-12---10-
-12---------------12-------------------
---------------------------------------
---------------------------------------
---------------------------------------

Chorus
Play each note several times
----15--------------
-13----13-13-13-12--
--------------------
--------------------
--------------------
--------------------

Bridge
-20-19-------------------------------------
-------20----------18----18----17----17----
----------19..--17----17----17----17----17-
-------------------------------------------
-------------------------------------------
-------------------------------------------

Similar to the previous, play the following twice:
-20-19-------------------------------------
-------20----------18----18----20----20----
----------19..--17----17----17----17----17-
-------------------------------------------
-------------------------------------------
-------------------------------------------

-19-20-------------------19-20-------------
-------20-------------20-------20----------
----------19-19-19-19-------------19...-17-
-------------------------------------------
-------------------------------------------
-------------------------------------------

7 comments:

Anonymous said...

awesome song
thanks

Anonymous said...

i cant find the side comments anymore so if any one reads this i kinda want to learn how to play from the corners of the earth

yamahar6 said...

hey what effects does starfield use? i'm kinda new to the pedals. thanks!

jeshma said...

the intro is a bit off.
first you forgot to include the very beginning, which you played. On B string 13th fret and on G string, 12th fret. play those notes back and forth.
second, in the intro tab written,
it's:
E|------------/15-12--
B|----15-13-----------
G|-12-------12--------


E|--------------------
B|----15-13-13-12--10-
G|-14-----------------
/ = slide

Mark said...

what key is this in?

Michael said...
This comment has been removed by the author.
Hunter said...

What key is this in exactly?