I Will Go

Here's another song by Starfield.. Unfortunately, i played the first half of the verse wrongly... use the 2nd half instead.. sorry!



Tabs
Intro
Use unison bends... see here for more on the technique..
---------11--------------14-----
-12------14b16---12------17b19--
-15b16-----------15b16----------
--------------------------------
--------------------------------
--------------------------------

Verse
Cooked this up on my own.... I used the middle pickup to have a cleaner, less aggressive sound.. For the first verse, skip the first 3 notes..
-----------------------2---
-----0------0--------0-----
---3------3--------3-------
-6------2--------4---------
---------------------------
---------------------------

Repeat 3 times, then strum C#m B F#

Chorus
This simple riff repeats throughout the chorus:
--------------------------
---7---7---7----4h5p4-----
-4---4---4----4--------4--
--------------------------
--------------------------
--------------------------
For the last round, just play the first 6 notes.


Effects:
Patch 1C - Class A-30 + Classic Distortion on my Pod XTL.

4 comments:

Anonymous said...

WELL DONE! this tab is accurate and detailed. COuld you post the electric tabs for From The Corners Of the Earth by starfield in their latest album I Will GO?

kevin said...

this is great!!!!!!!!
ive been trying to find this for so long thank you so much
also i was wondering if you could
tab out my generation i cant find that either thnx

calvin said...

hey great tabs
but what are the chords that the rhythm guitar plays behind the intro?

Daniel said...

to play the rhythm part, play g#.