With You

Here's With You, from Hillsong's Blessed album.



Tabs
Intro/instrumental
----------------------------

----------------------------
-4-6-8-11-6--8-9-8-4--6-4---
----------------------------
-2-4-6-9--4--6-7-6-2--4-2---
----------------------------

----------------------------
----------------------------
-4-6-8-11-6--8-9-8-4--6-----
----------------------------
-2-4-6-9--4--6-7-6-2--4-----
----------------------------

Bridge
With 8th note delay
--------------------------------
------------
-12--12--11-12--12--12------------11--------
---11--11-----11--11--11-11-11-11----11-11--
--------------------------------------------
--------------------------------------------
--------------------------------------------

---------------------
-12--12--12------12--
---11--11--11-11-11--
---------------------
---------------------
---------------------

For this part, I played a single note using a certain rhythm to create a percussive effect.
-----
-----
-11--
-----
-----
-----

3 comments:

Anonymous said...

Hey mate i think ur last 2 chords on ur G# and F# is on the wrong line of the tabs =)

Mikey said...

Hi Kenny! Any chance of you doing a video of the guitar parts in the verse? Please?

Anonymous said...

hey thanks for this i had requested this in the forums great job!!