Love Enough 2008

Tho this version is not too dissimilar from the EP version, I play it a little different from Jereome's tabs. Enjoy!



Tabs
Intro
Play each note several times, use delay.
------------------------
-----3h5-------3h5--3---
-5-4-------5-4----------
------------------------
------------------------
------------------------

Verse
Play each note several times, like playing the bass.
--------------
--------------
--------------
--------------
-0-----3------
----1-----3---

At the 2nd part, strum:
-5--5--5--3--1--5--3---
-5--6--5--3--1--5--3---
-5--5--5--4--2--5--4---
-----------------------
-----------------------
-----------------------

Chorus
I did a post on these type of chords once, check it out.

Strum:
-----------------

-13--10--6--8----

-12--9---5--7----
-10--7---3--5----
-----------------
-----------------

Bridge
Strum
-------3--
-5--5--3--
-5--5--4--
-3--7--5--
----------
----------

Play several times
-----------------
-6-5----6-5------
-----5------5----
-----------------
-----------------
-----------------

To end the bridge:
-----------------
-6-5----6-5------
-----5------7-5--
-----------------
-----------------
-----------------

9 comments:

dan said...

i have a question, do you change your patches for each song or is there one that you use the most?

which one did you use for this one?

kenny said...

I usually patch 1C.

Peter said...

hey kenny.. this is random.. but i just got confortable enough on guitar to mess around.. and i coulnt figure out what the keyboard was playing to transpose it to guitar.. so i was wondering what you would think of this..

G:--------10~---------12~--------10-12s14-12-10-12

A:12-10-12----12-10-12---12-10-12-------------------12

just let me know what you think.. i dunno if you know exactly what i mean.. but i have no means of recording it to show you.. so im pretty sure you can get a pretty good idea of it. its simple... i know.. but i just want some feedback.

Peter said...

oh.. the little part of the G string is between the two 12's on the A string.. just so you dont get confused

Peter said...

G:-----------10~-------------12~---------------10-12s14-12-10-12
A:12-10-12------12-10-12------12-10-12--------------------------12

ok.. that looks better i think..

Peter said...

the first four notes take up a measure.. the second four notes take up the second measure... and the rest fills in the remaining two measures left in the intro.. riff.. its layered over the intro like the keyboard

Anonymous said...

Hi Kenny,

Great work as usual.

I found a capo on 1 with these shapes for the intro work well.
(Relative to capo fret positions)
E
B -000-000-00000000
G -444-333-88888888
D
A
E

Dave (Australia)

Anonymous said...

Hey peter
i think this is how it goes

E ---------15----------------------
B -----------15-17-----------------
G 14-17-14--------14-17-14-14-17-14

Keegan said...

if you get bored of the intro line (i did), i made something up thats really simple but sounds a bit different and its really really easy

(play each note a few times, enough to sound like the song)
e---8---7---12--

like i said, its the easiest thing ever but i think it sounds better than the intro, its actually the same notes, just different octaves.