You Are Good

By Eman

This is a version by lakewood in the cd "we speak to nations". I didn't write the name of the chords near the tab because i don't know the name of all the chords, sorry! Enjoy and God bless!





Key E

Intro:
|--0--||--0--||--0--||--0--|
|--0--||--0--||--0--||--0--|
|--9--||--8--||--7--||--6--|
|--9--||--9--||--7--||--7--|
|--7--||--7--||--7--||--7--|
|--0--||--0--||--0--||--0--|

Verse:
|--x--||--x--||--x--||--x--|
|--x--||--x--||--x--||--x--|
|--9--||--8--||--7--||--6--|
|--9--||--9--||--7--||--7--|
|--7--||--7--||--7--||--7--|
|--x--||--x--||--x--||--x--|

Pre-chorus:
|--0--||--0--||--0--||--0--|
|--0--||--0--||--0--||--0--|
|--2--||--4--||--5--||--7--|
|--2--||--4--||--5--||--7--|
|--0--||--0--||--0--||--0--|
|-----||-----||-----||-----|

Chorus:
|--0--||--0--||--0--||--0--|
|--0--||--0--||--7--||--0--|
|--9--||--8--||--6--||--4--|
|--9--||--9--||--7--||--7--|
|--7--||--9--||--5--||--7--|
|--0--||--7--||-----||--5--|


|--0--||--0--||--0--||--0--|
|--0--||--0--||--0--||--0--|
|--9--||--8--||--5--||--7--|
|--9--||--9--||--5--||--7--|
|--7--||--9--||--3--||--5--|
|--0--||--7--||-----||-----|


|--0--||--0--||--0--||--0--|
|--0--||--0--||--7--||--0--|
|--9--||--8--||--6--||--4--|
|--9--||--9--||--7--||--7--|
|--7--||--9--||--5--||--7--|
|--0--||--7--||-----||--5--|


|--0--||--0--||--0--||--0--|
|--5--||--0--||--0--||--0--|
|--4--||--4--||--5--||--7--|
|--2--||--4--||--5--||--7--|
|--x--||--2--||--3--||--5--|
|--4--||-----||-----||-----|


Instrumental:
I'm not sure for this part of the song, but I played the following chord, and added some slides:
|--0--|
|--0--|
|--9--|
|--9--|
|--7--|
|--0--|

Bridge:
Here are the chords, which are quite simple. Use power chords for the '5' chords.

E G A
E5 D5 C#5


E G A
E5 D5 C#5 (7x)
C5 B5

5 comments:

Anonymous said...

You can play an E9 chord for the instrumental.

Skapi said...

Thanks very much, this is really helping me out!

nyc said...

guess you need more practice,,,

Anonymous said...

ellow im eman...
actually i play electric guitar!!i'm not good with the acoustic!!ehehe..so im sory if like you can see that im not Good!!ehehe...God Bless you!!

r3ck0rd said...

if you see the video here: http://www.youtube.com/watch?v=4iY_f38yJqo
the chords were different. Either the intro, the pre-chorus, and the Bm. If you haven't watched Israel's videos on YouTube for Deeper Level Demos, then watch it. :)
just my two cents...