My Future Decided (2008)

By Jerome

Here's Future Decided tabs which includes the verse tabs that weren't tabbed out earlier. Have Fun!



Verse riff: clean, sharp sound with a bit of delay
---9----9----9----9----9-----
------10---10---10---10------
-11-11---11---11---11--------
-----------------------------
-----------------------------
-----------------------------
F#m

----9-----10---10---10-------
--10-(6x)---10---10----------
-9------------9----9---------
-----------------------------
-----------------------------
-----------------------------
A Asus4

-9---9---9-----9-------------
--10--10-----10-(5x)---------
----9---9--11----------------
-----------------------------
-----------------------------
-----------------------------
A F#m

Followed by a running delay riff.
-----------------------------
------------9----10----12----
-14--13--14-12b3-13b14-15b16-
-----------------------------
-----------------------------
-----------------------------
Refer to the video for the first 3 notes

Instrumental:
-------17-17-16-16-----14----
-14(8x)-----------17-17------
-----------------------------
-----------------------------
-----------------------------
-----------------------------

-----------------------------
------17-"14s12b13-14"-------
-14b15-----------------------
-----------------------------
-----------------------------
-----------------------------
"you can also do it without sliding from 14 to 12"

-------17-17-16-16-----14----
-14(8x)-----------17-17------
-----------------------------
-----------------------------
-----------------------------
-----------------------------

-------------------------14----
-10----9-----12----10----18b19-
-13b14-12b13-15b16-13b14-------
-------------------------------
-------------------------------
-------------------------------

7 comments:

temo said...

Great Video!!!
Sounded really good.
Keep it up!!

Anonymous said...

almost the same..but good work!

Anonymous said...

dude, I was at this concert! They played at a gorgeous old opera theater. It was a real blessing.

Anonymous said...

hey kenny what effect did u use? that was really good sound~ =)

Max Power said...

WHY WAS THE VIDEO TAKEN DOWN???

Durete said...

Indeed! a shame that the video's gone...
Thanks for the tabs though ;)

longge said...

The world's best replica rolex uk appear from Switzerland and abounding dream of owning one. Anniversary architect has a assertive appearance and niche, whether it's the complicated movements of Patek Philippe, the diving history of Panerai watches or the aeronautic ancestry of Breitling watches.